  0
SECTION
  2
HEADER
  9
$ACADVER
  1
AC1009
  9
$DWGCODEPAGE
  3
ansi_1252
  9
$INSBASE
 10
0.0
 20
0.0
 30
0.0
  9
$EXTMIN
 10
0.0
 20
-11.811023622
 30
0.0
  9
$EXTMAX
 10
19.6850393701
 20
0.0
 30
0.0
  9
$LIMMIN
 10
0.0
 20
0.0
  9
$LIMMAX
 10
12.0
 20
9.0
  9
$ORTHOMODE
 70
     0
  9
$REGENMODE
 70
     1
  9
$FILLMODE
 70
     1
  9
$QTEXTMODE
 70
     0
  9
$MIRRTEXT
 70
     1
  9
$DRAGMODE
 70
     2
  9
$LTSCALE
 40
1.0
  9
$OSMODE
 70
    37
  9
$ATTMODE
 70
     1
  9
$TEXTSIZE
 40
0.1377952756
  9
$TRACEWID
 40
0.05
  9
$TEXTSTYLE
  7
STANDARD
  9
$CLAYER
  8
0
  9
$CELTYPE
  6
BYLAYER
  9
$CECOLOR
 62
   256
  9
$DIMSCALE
 40
1.0
  9
$DIMASZ
 40
0.13
  9
$DIMEXO
 40
0.0393700787
  9
$DIMDLI
 40
0.38
  9
$DIMRND
 40
0.0
  9
$DIMDLE
 40
0.0
  9
$DIMEXE
 40
0.0393700787
  9
$DIMTP
 40
0.0
  9
$DIMTM
 40
0.0
  9
$DIMTXT
 40
0.1377952756
  9
$DIMCEN
 40
0.09
  9
$DIMTSZ
 40
0.0
  9
$DIMTOL
 70
     0
  9
$DIMLIM
 70
     0
  9
$DIMTIH
 70
     1
  9
$DIMTOH
 70
     1
  9
$DIMSE1
 70
     0
  9
$DIMSE2
 70
     0
  9
$DIMTAD
 70
     1
  9
$DIMZIN
 70
     0
  9
$DIMBLK
  1

  9
$DIMASO
 70
     1
  9
$DIMSHO
 70
     1
  9
$DIMPOST
  1

  9
$DIMAPOST
  1

  9
$DIMALT
 70
     0
  9
$DIMALTD
 70
     2
  9
$DIMALTF
 40
25.4
  9
$DIMLFAC
 40
1.0
  9
$DIMTOFL
 70
     0
  9
$DIMTVP
 40
0.0
  9
$DIMTIX
 70
     0
  9
$DIMSOXD
 70
     0
  9
$DIMSAH
 70
     0
  9
$DIMBLK1
  1

  9
$DIMBLK2
  1

  9
$DIMSTYLE
  2
STANDARD
  9
$DIMCLRD
 70
     0
  9
$DIMCLRE
 70
     0
  9
$DIMCLRT
 70
     0
  9
$DIMTFAC
 40
1.0
  9
$DIMGAP
 40
0.06
  9
$LUNITS
 70
     2
  9
$LUPREC
 70
     4
  9
$SKETCHINC
 40
0.1
  9
$FILLETRAD
 40
0.5
  9
$AUNITS
 70
     0
  9
$AUPREC
 70
     2
  9
$MENU
  1
.
  9
$ELEVATION
 40
0.0
  9
$PELEVATION
 40
0.0
  9
$THICKNESS
 40
0.0
  9
$LIMCHECK
 70
     0
  9
$CHAMFERA
 40
0.0
  9
$CHAMFERB
 40
0.0
  9
$SKPOLY
 70
     0
  9
$TDCREATE
 40
2457362.744419954
  9
$TDUPDATE
 40
2457362.744445185
  9
$TDINDWG
 40
0.0000000116
  9
$TDUSRTIMER
 40
0.0000000116
  9
$USRTIMER
 70
     1
  9
$ANGBASE
 50
0.0
  9
$ANGDIR
 70
     0
  9
$PDMODE
 70
     0
  9
$PDSIZE
 40
-1.0
  9
$PLINEWID
 40
0.0
  9
$COORDS
 70
     1
  9
$SPLFRAME
 70
     0
  9
$SPLINETYPE
 70
     6
  9
$SPLINESEGS
 70
     8
  9
$ATTDIA
 70
     0
  9
$ATTREQ
 70
     1
  9
$HANDLING
 70
     1
  9
$HANDSEED
  5
2E4
  9
$SURFTAB1
 70
     6
  9
$SURFTAB2
 70
     6
  9
$SURFTYPE
 70
     6
  9
$SURFU
 70
     6
  9
$SURFV
 70
     6
  9
$UCSNAME
  2

  9
$UCSORG
 10
0.0
 20
0.0
 30
0.0
  9
$UCSXDIR
 10
1.0
 20
0.0
 30
0.0
  9
$UCSYDIR
 10
0.0
 20
1.0
 30
0.0
  9
$PUCSNAME
  2

  9
$PUCSORG
 10
0.0
 20
0.0
 30
0.0
  9
$PUCSXDIR
 10
1.0
 20
0.0
 30
0.0
  9
$PUCSYDIR
 10
0.0
 20
1.0
 30
0.0
  9
$USERI1
 70
     0
  9
$USERI2
 70
     0
  9
$USERI3
 70
     0
  9
$USERI4
 70
     0
  9
$USERI5
 70
     0
  9
$USERR1
 40
0.0
  9
$USERR2
 40
0.0
  9
$USERR3
 40
0.0
  9
$USERR4
 40
0.0
  9
$USERR5
 40
0.0
  9
$WORLDVIEW
 70
     1
  9
$SHADEDGE
 70
     3
  9
$SHADEDIF
 70
    70
  9
$TILEMODE
 70
     1
  9
$MAXACTVP
 70
    64
  9
$PLIMCHECK
 70
     0
  9
$PEXTMIN
 10
1.0000000000E+20
 20
1.0000000000E+20
 30
1.0000000000E+20
  9
$PEXTMAX
 10
-1.0000000000E+20
 20
-1.0000000000E+20
 30
-1.0000000000E+20
  9
$PLIMMIN
 10
0.0
 20
0.0
  9
$PLIMMAX
 10
12.0
 20
9.0
  9
$UNITMODE
 70
     0
  9
$VISRETAIN
 70
     1
  9
$PLINEGEN
 70
     0
  9
$PSLTSCALE
 70
     1
  0
ENDSEC
  0
SECTION
  2
TABLES
  0
TABLE
  2
VPORT
 70
     1
  0
VPORT
  2
*ACTIVE
 70
     0
 10
0.0
 20
0.0
 11
1.0
 21
1.0
 12
9.8425196851
 22
-5.905511811
 13
0.0
 23
0.0
 14
0.5
 24
0.5
 15
0.5
 25
0.5
 16
0.0
 26
0.0
 36
1.0
 17
0.0
 27
0.0
 37
0.0
 40
12.0472440944
 41
1.6666666667
 42
50.0
 43
0.0
 44
0.0
 50
0.0
 51
0.0
 71
     0
 72
   100
 73
     1
 74
     3
 75
     0
 76
     0
 77
     0
 78
     0
  0
ENDTAB
  0
TABLE
  2
LTYPE
 70
     6
  0
LTYPE
  2
CONTINUOUS
 70
     0
  3
Solid line
 72
    65
 73
     0
 40
0.0
  0
LTYPE
  2
HIDDEN
 70
     0
  3
Hidden __ __ __ __ __ __ __ __ __ __ __ __ __ __
 72
    65
 73
     2
 40
0.075
 49
0.05
 49
-0.025
  0
LTYPE
  2
PHANTOM
 70
     0
  3
Phantom ______  __  __  ______  __  __  ______
 72
    65
 73
     6
 40
0.5
 49
0.25
 49
-0.05
 49
0.05
 49
-0.05
 49
0.05
 49
-0.05
  0
LTYPE
  2
CENTER
 70
     0
  3
Center ____ _ ____ _ ____ _ ____ _ ____ _ ____
 72
    65
 73
     4
 40
0.4
 49
0.25
 49
-0.05
 49
0.05
 49
-0.05
  0
LTYPE
  2
CENTERX2
 70
     0
  3
Center (2x) ________  __  ________  __  _____
 72
    65
 73
     4
 40
0.8
 49
0.5
 49
-0.1
 49
0.1
 49
-0.1
  0
LTYPE
  2
DOT2
 70
     0
  3
Dot (.5x) ........................................
 72
    65
 73
     2
 40
0.025
 49
0.0
 49
-0.025
  0
ENDTAB
  0
TABLE
  2
LAYER
 70
     1
  0
LAYER
  2
0
 70
     0
 62
     7
  6
CONTINUOUS
  0
ENDTAB
  0
TABLE
  2
STYLE
 70
     1
  0
STYLE
  2
STANDARD
 70
     0
 40
0.0
 41
1.0
 50
0.0
 71
     0
 42
0.1377952756
  3
txt
  4

  0
ENDTAB
  0
TABLE
  2
VIEW
 70
     0
  0
ENDTAB
  0
TABLE
  2
UCS
 70
     0
  0
ENDTAB
  0
TABLE
  2
APPID
 70
     1
  0
APPID
  2
ACAD
 70
     0
  0
ENDTAB
  0
TABLE
  2
DIMSTYLE
 70
     1
  0
DIMSTYLE
  2
STANDARD
 70
     0
  3

  4

  5

  6

  7

 40
1.0
 41
0.18
 42
0.0625
 43
0.38
 44
0.18
 45
0.0
 46
0.0
 47
0.0
 48
0.0
140
0.18
141
0.09
142
0.0
143
25.4
144
1.0
145
0.0
146
1.0
147
0.09
 71
     0
 72
     0
 73
     1
 74
     1
 75
     0
 76
     0
 77
     0
 78
     0
170
     0
171
     2
172
     0
173
     0
174
     0
175
     0
176
     0
177
     0
178
     0
  0
ENDTAB
  0
ENDSEC
  0
SECTION
  2
BLOCKS
  0
BLOCK
  8
0
  2
$MODEL_SPACE
 70
     0
 10
0.0
 20
0.0
 30
0.0
  3
$MODEL_SPACE
  1

  0
ENDBLK
  5
21
  8
0
  0
BLOCK
 67
     1
  8
0
  2
$PAPER_SPACE
 70
     0
 10
0.0
 20
0.0
 30
0.0
  3
$PAPER_SPACE
  1

  0
ENDBLK
  5
1D
 67
     1
  8
0
  0
ENDSEC
  0
SECTION
  2
ENTITIES
  0
CIRCLE
  5
73
  8
0
  6
CONTINUOUS
 62
     7
 10
13.9179556025
 20
-2.5354479321
 30
0.0
 40
1.614999999999998
  0
CIRCLE
  5
74
  8
0
  6
CONTINUOUS
 62
     7
 10
5.8239531225
 20
-9.2380023275
 30
0.0
 40
1.615
  0
LINE
  5
75
  8
0
  6
CONTINUOUS
 62
     7
 10
16.5512346627
 20
-11.2175094187
 30
0.0
 11
16.5535222705
 21
-11.2924522634
 31
0.0
  0
LINE
  5
76
  8
0
  6
CONTINUOUS
 62
     7
 10
16.5535222705
 20
-11.2924522634
 30
0.0
 11
16.5247267801
 21
-11.3600473076
 31
0.0
  0
LINE
  5
77
  8
0
  6
CONTINUOUS
 62
     7
 10
16.5247267801
 20
-11.3600473076
 30
0.0
 11
16.4728775567
 21
-11.4131264404
 31
0.0
  0
LINE
  5
78
  8
0
  6
CONTINUOUS
 62
     7
 10
16.4728775567
 20
-11.4131264404
 30
0.0
 11
16.4054727066
 21
-11.4445374167
 31
0.0
  0
LINE
  5
79
  8
0
  6
CONTINUOUS
 62
     7
 10
3.1906740623
 20
-0.5559408408
 30
0.0
 11
3.1883864546
 21
-0.4809979961
 31
0.0
  0
LINE
  5
7A
  8
0
  6
CONTINUOUS
 62
     7
 10
3.1883864546
 20
-0.4809979961
 30
0.0
 11
3.2171819449
 21
-0.4134029519
 31
0.0
  0
LINE
  5
7B
  8
0
  6
CONTINUOUS
 62
     7
 10
3.2171819449
 20
-0.4134029519
 30
0.0
 11
3.2690311683
 21
-0.3603238191
 31
0.0
  0
LINE
  5
7C
  8
0
  6
CONTINUOUS
 62
     7
 10
3.2690311683
 20
-0.3603238191
 30
0.0
 11
3.3364360184
 21
-0.3289128428
 31
0.0
  0
LINE
  5
7D
  8
0
  6
CONTINUOUS
 62
     7
 10
3.3364360184
 20
-0.3289128428
 30
0.0
 11
3.6429442633
 21
-0.2928671852
 31
0.0
  0
LINE
  5
7E
  8
0
  6
CONTINUOUS
 62
     7
 10
3.6429442633
 20
-0.2928671852
 30
0.0
 11
3.9521930228
 21
-0.2888963503
 31
0.0
  0
LINE
  5
7F
  8
0
  6
CONTINUOUS
 62
     7
 10
3.9521930228
 20
-0.2888963503
 30
0.0
 11
4.3487579081
 21
-0.2947741087
 31
0.0
  0
LINE
  5
80
  8
0
  6
CONTINUOUS
 62
     7
 10
8.5051410036
 20
-0.2748975997
 30
0.0
 11
4.3487579081
 21
-0.2947741087
 31
0.0
  0
LINE
  5
81
  8
0
  6
CONTINUOUS
 62
     7
 10
5.9322096193
 20
-3.1924000002
 30
0.0
 11
7.6097776521
 21
-4.3043733575
 31
0.0
  0
LINE
  5
82
  8
0
  6
CONTINUOUS
 62
     7
 10
8.5051410036
 20
-0.2748975997
 30
0.0
 11
9.1900481151
 21
-0.2710059735
 31
0.0
  0
LINE
  5
83
  8
0
  6
CONTINUOUS
 62
     7
 10
9.1900481151
 20
-0.2710059735
 30
0.0
 11
9.8749876811
 21
-0.2636176305
 31
0.0
  0
LINE
  5
84
  8
0
  6
CONTINUOUS
 62
     7
 10
9.8749876811
 20
-0.2636176305
 30
0.0
 11
11.2209621946
 21
-0.2615046115
 31
0.0
  0
LINE
  5
85
  8
0
  6
CONTINUOUS
 62
     7
 10
11.2209621946
 20
-0.2615046115
 30
0.0
 11
12.5669826422
 21
-0.2714716086
 31
0.0
  0
LINE
  5
86
  8
0
  6
CONTINUOUS
 62
     7
 10
13.5697976604
 20
-0.2850389239
 30
0.0
 11
12.5669826422
 21
-0.2714716086
 31
0.0
  0
LINE
  5
87
  8
0
  6
CONTINUOUS
 62
     7
 10
16.4054727066
 20
-11.4445374167
 30
0.0
 11
16.0989644617
 21
-11.4805830743
 31
0.0
  0
LINE
  5
88
  8
0
  6
CONTINUOUS
 62
     7
 10
13.5697976604
 20
-0.2850389239
 30
0.0
 11
14.7618471425
 21
-0.286434041
 31
0.0
  0
LINE
  5
89
  8
0
  6
CONTINUOUS
 62
     7
 10
14.7618471425
 20
-0.286434041
 30
0.0
 11
15.9536565863
 21
-0.3067281048
 31
0.0
  0
LINE
  5
8A
  8
0
  6
CONTINUOUS
 62
     7
 10
15.9536565863
 20
-0.3067281048
 30
0.0
 11
16.0719753578
 21
-0.3159772342
 31
0.0
  0
LINE
  5
8B
  8
0
  6
CONTINUOUS
 62
     7
 10
16.0719753578
 20
-0.3159772342
 30
0.0
 11
16.1917459492
 21
-0.3275121005
 31
0.0
  0
LINE
  5
8C
  8
0
  6
CONTINUOUS
 62
     7
 10
16.1917459492
 20
-0.3275121005
 30
0.0
 11
16.3082999574
 21
-0.3519909534
 31
0.0
  0
LINE
  5
8D
  8
0
  6
CONTINUOUS
 62
     7
 10
16.3082999574
 20
-0.3519909534
 30
0.0
 11
16.4172251638
 21
-0.4000475448
 31
0.0
  0
LINE
  5
8E
  8
0
  6
CONTINUOUS
 62
     7
 10
16.4172251638
 20
-0.4000475448
 30
0.0
 11
16.5940889168
 21
-0.5312745669
 31
0.0
  0
LINE
  5
8F
  8
0
  6
CONTINUOUS
 62
     7
 10
16.5940889168
 20
-0.5312745669
 30
0.0
 11
16.7291457552
 21
-0.7049483535
 31
0.0
  0
LINE
  5
90
  8
0
  6
CONTINUOUS
 62
     7
 10
16.7291457552
 20
-0.7049483535
 30
0.0
 11
16.8234507658
 21
-0.9276635216
 31
0.0
  0
LINE
  5
91
  8
0
  6
CONTINUOUS
 62
     7
 10
16.8234507658
 20
-0.9276635216
 30
0.0
 11
16.8991403384
 21
-1.1573048907
 31
0.0
  0
LINE
  5
92
  8
0
  6
CONTINUOUS
 62
     7
 10
16.8991403384
 20
-1.1573048907
 30
0.0
 11
16.9668664967
 21
-1.389835375
 31
0.0
  0
LINE
  5
93
  8
0
  6
CONTINUOUS
 62
     7
 10
16.9668664967
 20
-1.389835375
 30
0.0
 11
17.0373114427
 21
-1.6212412048
 31
0.0
  0
LINE
  5
94
  8
0
  6
CONTINUOUS
 62
     7
 10
17.0373114427
 20
-1.6212412048
 30
0.0
 11
17.2090062581
 21
-2.2501927783
 31
0.0
  0
LINE
  5
95
  8
0
  6
CONTINUOUS
 62
     7
 10
17.2090062581
 20
-2.2501927783
 30
0.0
 11
17.3805400732
 21
-2.8793239473
 31
0.0
  0
LINE
  5
96
  8
0
  6
CONTINUOUS
 62
     7
 10
17.3805400732
 20
-2.8793239473
 30
0.0
 11
17.8597190825
 21
-4.5363610425
 31
0.0
  0
LINE
  5
97
  8
0
  6
CONTINUOUS
 62
     7
 10
17.8597190825
 20
-4.5363610425
 30
0.0
 11
18.3528709258
 21
-6.189179749
 31
0.0
  0
LINE
  5
98
  8
0
  6
CONTINUOUS
 62
     7
 10
18.3528709258
 20
-6.189179749
 30
0.0
 11
18.661918974
 21
-7.2279564088
 31
0.0
  0
LINE
  5
99
  8
0
  6
CONTINUOUS
 62
     7
 10
18.661918974
 20
-7.2279564088
 30
0.0
 11
18.8117293692
 21
-7.7368150546
 31
0.0
  0
LINE
  5
9A
  8
0
  6
CONTINUOUS
 62
     7
 10
18.8117293692
 20
-7.7368150546
 30
0.0
 11
18.9665451039
 21
-8.2441469787
 31
0.0
  0
LINE
  5
9B
  8
0
  6
CONTINUOUS
 62
     7
 10
18.9665451039
 20
-8.2441469787
 30
0.0
 11
19.2542351224
 21
-9.2451891241
 31
0.0
  0
LINE
  5
9C
  8
0
  6
CONTINUOUS
 62
     7
 10
19.2542351224
 20
-9.2451891241
 30
0.0
 11
19.3028094696
 21
-9.4274793993
 31
0.0
  0
LINE
  5
9D
  8
0
  6
CONTINUOUS
 62
     7
 10
19.3028094696
 20
-9.4274793993
 30
0.0
 11
19.3497542427
 21
-9.6108750672
 31
0.0
  0
LINE
  5
9E
  8
0
  6
CONTINUOUS
 62
     7
 10
19.3497542427
 20
-9.6108750672
 30
0.0
 11
19.3784791219
 21
-9.7964956623
 31
0.0
  0
LINE
  5
9F
  8
0
  6
CONTINUOUS
 62
     7
 10
19.3784791219
 20
-9.7964956623
 30
0.0
 11
19.3722889961
 21
-9.9853823513
 31
0.0
  0
LINE
  5
A0
  8
0
  6
CONTINUOUS
 62
     7
 10
19.3722889961
 20
-9.9853823513
 30
0.0
 11
19.3462610828
 21
-10.1412382874
 31
0.0
  0
LINE
  5
A1
  8
0
  6
CONTINUOUS
 62
     7
 10
19.3462610828
 20
-10.1412382874
 30
0.0
 11
19.2859778926
 21
-10.2868165994
 31
0.0
  0
LINE
  5
A2
  8
0
  6
CONTINUOUS
 62
     7
 10
19.2859778926
 20
-10.2868165994
 30
0.0
 11
19.1990981047
 21
-10.4194920834
 31
0.0
  0
LINE
  5
A3
  8
0
  6
CONTINUOUS
 62
     7
 10
19.1990981047
 20
-10.4194920834
 30
0.0
 11
19.0932381629
 21
-10.5365157079
 31
0.0
  0
LINE
  5
A4
  8
0
  6
CONTINUOUS
 62
     7
 10
19.0932381629
 20
-10.5365157079
 30
0.0
 11
18.9965392716
 21
-10.6146604759
 31
0.0
  0
LINE
  5
A5
  8
0
  6
CONTINUOUS
 62
     7
 10
18.9965392716
 20
-10.6146604759
 30
0.0
 11
18.8887538874
 21
-10.6777636795
 31
0.0
  0
LINE
  5
A6
  8
0
  6
CONTINUOUS
 62
     7
 10
18.8887538874
 20
-10.6777636795
 30
0.0
 11
18.7721570798
 21
-10.7204623704
 31
0.0
  0
LINE
  5
A7
  8
0
  6
CONTINUOUS
 62
     7
 10
18.7721570798
 20
-10.7204623704
 30
0.0
 11
18.6490096189
 21
-10.7375071129
 31
0.0
  0
LINE
  5
A8
  8
0
  6
CONTINUOUS
 62
     7
 10
18.6490096189
 20
-10.7375071129
 30
0.0
 11
18.4727116832
 21
-10.7282868963
 31
0.0
  0
LINE
  5
A9
  8
0
  6
CONTINUOUS
 62
     7
 10
18.4727116832
 20
-10.7282868963
 30
0.0
 11
18.3012948119
 21
-10.6886879577
 31
0.0
  0
LINE
  5
AA
  8
0
  6
CONTINUOUS
 62
     7
 10
18.3012948119
 20
-10.6886879577
 30
0.0
 11
18.1355926643
 21
-10.6266519144
 31
0.0
  0
LINE
  5
AB
  8
0
  6
CONTINUOUS
 62
     7
 10
18.1355926643
 20
-10.6266519144
 30
0.0
 11
17.9767662147
 21
-10.5501400908
 31
0.0
  0
LINE
  5
AC
  8
0
  6
CONTINUOUS
 62
     7
 10
17.9767662147
 20
-10.5501400908
 30
0.0
 11
17.4909076457
 21
-10.2777817353
 31
0.0
  0
LINE
  5
AD
  8
0
  6
CONTINUOUS
 62
     7
 10
17.4909076457
 20
-10.2777817353
 30
0.0
 11
17.0124588432
 21
-9.9927111117
 31
0.0
  0
LINE
  5
AE
  8
0
  6
CONTINUOUS
 62
     7
 10
17.0124588432
 20
-9.9927111117
 30
0.0
 11
16.5352923596
 21
-9.7053752328
 31
0.0
  0
LINE
  5
AF
  8
0
  6
CONTINUOUS
 62
     7
 10
16.5352923596
 20
-9.7053752328
 30
0.0
 11
16.0534292047
 21
-9.4262208894
 31
0.0
  0
LINE
  5
B0
  8
0
  6
CONTINUOUS
 62
     7
 10
16.0534292047
 20
-9.4262208894
 30
0.0
 11
15.6115395321
 21
-9.1505509585
 31
0.0
  0
LINE
  5
B1
  8
0
  6
CONTINUOUS
 62
     7
 10
15.6115395321
 20
-9.1505509585
 30
0.0
 11
15.1635156226
 21
-8.8849702448
 31
0.0
  0
LINE
  5
B2
  8
0
  6
CONTINUOUS
 62
     7
 10
15.1635156226
 20
-8.8849702448
 30
0.0
 11
14.7146581578
 21
-8.6208474706
 31
0.0
  0
LINE
  5
B3
  8
0
  6
CONTINUOUS
 62
     7
 10
14.7146581578
 20
-8.6208474706
 30
0.0
 11
14.2702833137
 21
-8.3493297789
 31
0.0
  0
LINE
  5
B4
  8
0
  6
CONTINUOUS
 62
     7
 10
14.2702833137
 20
-8.3493297789
 30
0.0
 11
13.7479705115
 21
-8.0365028264
 31
0.0
  0
LINE
  5
B5
  8
0
  6
CONTINUOUS
 62
     7
 10
13.7479705115
 20
-8.0365028264
 30
0.0
 11
13.2350150499
 21
-7.7090406932
 31
0.0
  0
LINE
  5
B6
  8
0
  6
CONTINUOUS
 62
     7
 10
13.2350150499
 20
-7.7090406932
 30
0.0
 11
12.5511651309
 21
-7.2993306401
 31
0.0
  0
LINE
  5
B7
  8
0
  6
CONTINUOUS
 62
     7
 10
10.3238982304
 20
-5.9997557479
 30
0.0
 11
12.5511651309
 21
-7.2993306401
 31
0.0
  0
LINE
  5
B8
  8
0
  6
CONTINUOUS
 62
     7
 10
0.0
 20
0.0
 30
0.0
 11
19.6850393701
 21
0.0
 31
0.0
  0
LINE
  5
B9
  8
0
  6
CONTINUOUS
 62
     7
 10
0.0
 20
0.0
 30
0.0
 11
0.0
 21
-11.811023622
 31
0.0
  0
LINE
  5
BA
  8
0
  6
CONTINUOUS
 62
     7
 10
0.0
 20
-11.811023622
 30
0.0
 11
19.6850393701
 21
-11.811023622
 31
0.0
  0
LINE
  5
BB
  8
0
  6
CONTINUOUS
 62
     7
 10
19.6850393701
 20
0.0
 30
0.0
 11
19.6850393701
 21
-11.811023622
 31
0.0
  0
LINE
  5
BC
  8
0
  6
CONTINUOUS
 62
     7
 10
16.0989644617
 20
-11.4805830743
 30
0.0
 11
15.7897157022
 21
-11.4845539092
 31
0.0
  0
LINE
  5
BD
  8
0
  6
CONTINUOUS
 62
     7
 10
15.7897157022
 20
-11.4845539092
 30
0.0
 11
15.393150817
 21
-11.4786761508
 31
0.0
  0
LINE
  5
BE
  8
0
  6
CONTINUOUS
 62
     7
 10
11.2367677214
 20
-11.4985526598
 30
0.0
 11
15.393150817
 21
-11.4786761508
 31
0.0
  0
LINE
  5
BF
  8
0
  6
CONTINUOUS
 62
     7
 10
10.3238982304
 20
-5.9997557479
 30
0.0
 11
9.775959383
 21
-5.6767498837
 31
0.0
  0
LINE
  5
C0
  8
0
  6
CONTINUOUS
 62
     7
 10
9.775959383
 20
-5.6767498837
 30
0.0
 11
9.0510034595
 21
-5.2237998406
 31
0.0
  0
LINE
  5
C1
  8
0
  6
CONTINUOUS
 62
     7
 10
9.0510034595
 20
-5.2237998406
 30
0.0
 11
8.3275977711
 21
-4.7683922773
 31
0.0
  0
LINE
  5
C2
  8
0
  6
CONTINUOUS
 62
     7
 10
8.3275977711
 20
-4.7683922773
 30
0.0
 11
7.6097776521
 21
-4.3043733575
 31
0.0
  0
LINE
  5
C3
  8
0
  6
CONTINUOUS
 62
     7
 10
13.8096991057
 20
-8.5810502593
 30
0.0
 11
12.1321310729
 21
-7.469076902
 31
0.0
  0
LINE
  5
C4
  8
0
  6
CONTINUOUS
 62
     7
 10
11.2367677214
 20
-11.4985526598
 30
0.0
 11
10.5518606099
 21
-11.502444286
 31
0.0
  0
LINE
  5
C5
  8
0
  6
CONTINUOUS
 62
     7
 10
10.5518606099
 20
-11.502444286
 30
0.0
 11
9.8669210439
 21
-11.509832629
 31
0.0
  0
LINE
  5
C6
  8
0
  6
CONTINUOUS
 62
     7
 10
9.8669210439
 20
-11.509832629
 30
0.0
 11
8.5209465304
 21
-11.511945648
 31
0.0
  0
LINE
  5
C7
  8
0
  6
CONTINUOUS
 62
     7
 10
5.9322096193
 20
-3.1924000002
 30
0.0
 11
5.4679568499
 21
-2.8565529675
 31
0.0
  0
LINE
  5
C8
  8
0
  6
CONTINUOUS
 62
     7
 10
5.4679568499
 20
-2.8565529675
 30
0.0
 11
4.9324856472
 21
-2.4519912915
 31
0.0
  0
LINE
  5
C9
  8
0
  6
CONTINUOUS
 62
     7
 10
4.9324856472
 20
-2.4519912915
 30
0.0
 11
4.4176087597
 21
-2.0213019396
 31
0.0
  0
LINE
  5
CA
  8
0
  6
CONTINUOUS
 62
     7
 10
4.4176087597
 20
-2.0213019396
 30
0.0
 11
3.9933515077
 21
-1.6350988834
 31
0.0
  0
LINE
  5
CB
  8
0
  6
CONTINUOUS
 62
     7
 10
3.9933515077
 20
-1.6350988834
 30
0.0
 11
3.5941039246
 21
-1.2233101687
 31
0.0
  0
LINE
  5
CC
  8
0
  6
CONTINUOUS
 62
     7
 10
3.5941039246
 20
-1.2233101687
 30
0.0
 11
3.458977009
 21
-1.0783867872
 31
0.0
  0
LINE
  5
CD
  8
0
  6
CONTINUOUS
 62
     7
 10
3.458977009
 20
-1.0783867872
 30
0.0
 11
3.3346847838
 21
-0.9210521291
 31
0.0
  0
LINE
  5
CE
  8
0
  6
CONTINUOUS
 62
     7
 10
3.3346847838
 20
-0.9210521291
 30
0.0
 11
3.2391609166
 21
-0.7480645714
 31
0.0
  0
LINE
  5
CF
  8
0
  6
CONTINUOUS
 62
     7
 10
3.2391609166
 20
-0.7480645714
 30
0.0
 11
3.1906740623
 21
-0.5559408408
 31
0.0
  0
LINE
  5
D0
  8
0
  6
CONTINUOUS
 62
     7
 10
8.5209465304
 20
-11.511945648
 30
0.0
 11
7.1749260828
 21
-11.5019786509
 31
0.0
  0
LINE
  5
D1
  8
0
  6
CONTINUOUS
 62
     7
 10
6.1721110646
 20
-11.4884113356
 30
0.0
 11
7.1749260828
 21
-11.5019786509
 31
0.0
  0
LINE
  5
D2
  8
0
  6
CONTINUOUS
 62
     7
 10
6.1721110646
 20
-11.4884113356
 30
0.0
 11
4.9800615825
 21
-11.4870162186
 31
0.0
  0
LINE
  5
D3
  8
0
  6
CONTINUOUS
 62
     7
 10
4.9800615825
 20
-11.4870162186
 30
0.0
 11
3.7882521387
 21
-11.4667221547
 31
0.0
  0
LINE
  5
D4
  8
0
  6
CONTINUOUS
 62
     7
 10
3.7882521387
 20
-11.4667221547
 30
0.0
 11
3.6699333673
 21
-11.4574730253
 31
0.0
  0
LINE
  5
D5
  8
0
  6
CONTINUOUS
 62
     7
 10
3.6699333673
 20
-11.4574730253
 30
0.0
 11
3.5501627758
 21
-11.445938159
 31
0.0
  0
LINE
  5
D6
  8
0
  6
CONTINUOUS
 62
     7
 10
3.5501627758
 20
-11.445938159
 30
0.0
 11
3.4336087676
 21
-11.4214593061
 31
0.0
  0
LINE
  5
D7
  8
0
  6
CONTINUOUS
 62
     7
 10
3.4336087676
 20
-11.4214593061
 30
0.0
 11
3.3246835612
 21
-11.3734027147
 31
0.0
  0
LINE
  5
D8
  8
0
  6
CONTINUOUS
 62
     7
 10
3.3246835612
 20
-11.3734027147
 30
0.0
 11
3.1478198082
 21
-11.2421756926
 31
0.0
  0
LINE
  5
D9
  8
0
  6
CONTINUOUS
 62
     7
 10
3.1478198082
 20
-11.2421756926
 30
0.0
 11
3.0127629698
 21
-11.068501906
 31
0.0
  0
LINE
  5
DA
  8
0
  6
CONTINUOUS
 62
     7
 10
3.0127629698
 20
-11.068501906
 30
0.0
 11
2.9184579593
 21
-10.8457867379
 31
0.0
  0
LINE
  5
DB
  8
0
  6
CONTINUOUS
 62
     7
 10
2.9184579593
 20
-10.8457867379
 30
0.0
 11
2.8427683866
 21
-10.6161453688
 31
0.0
  0
LINE
  5
DC
  8
0
  6
CONTINUOUS
 62
     7
 10
2.8427683866
 20
-10.6161453688
 30
0.0
 11
2.7750422283
 21
-10.3836148845
 31
0.0
  0
LINE
  5
DD
  8
0
  6
CONTINUOUS
 62
     7
 10
2.7750422283
 20
-10.3836148845
 30
0.0
 11
2.7045972823
 21
-10.1522090547
 31
0.0
  0
LINE
  5
DE
  8
0
  6
CONTINUOUS
 62
     7
 10
2.7045972823
 20
-10.1522090547
 30
0.0
 11
2.5329024669
 21
-9.5232574812
 31
0.0
  0
LINE
  5
DF
  8
0
  6
CONTINUOUS
 62
     7
 10
2.5329024669
 20
-9.5232574812
 30
0.0
 11
2.3613686519
 21
-8.8941263122
 31
0.0
  0
LINE
  5
E0
  8
0
  6
CONTINUOUS
 62
     7
 10
2.3613686519
 20
-8.8941263122
 30
0.0
 11
1.8821896425
 21
-7.237089217
 31
0.0
  0
LINE
  5
E1
  8
0
  6
CONTINUOUS
 62
     7
 10
1.8821896425
 20
-7.237089217
 30
0.0
 11
1.3890377993
 21
-5.5842705105
 31
0.0
  0
LINE
  5
E2
  8
0
  6
CONTINUOUS
 62
     7
 10
1.3890377993
 20
-5.5842705105
 30
0.0
 11
1.079989751
 21
-4.5454938507
 31
0.0
  0
LINE
  5
E3
  8
0
  6
CONTINUOUS
 62
     7
 10
1.079989751
 20
-4.5454938507
 30
0.0
 11
0.9301793558
 21
-4.036635205
 31
0.0
  0
LINE
  5
E4
  8
0
  6
CONTINUOUS
 62
     7
 10
0.9301793558
 20
-4.036635205
 30
0.0
 11
0.7753636211
 21
-3.5293032808
 31
0.0
  0
LINE
  5
E5
  8
0
  6
CONTINUOUS
 62
     7
 10
0.7753636211
 20
-3.5293032808
 30
0.0
 11
0.4876736027
 21
-2.5282611354
 31
0.0
  0
LINE
  5
E6
  8
0
  6
CONTINUOUS
 62
     7
 10
0.4876736027
 20
-2.5282611354
 30
0.0
 11
0.4390992554
 21
-2.3459708602
 31
0.0
  0
LINE
  5
E7
  8
0
  6
CONTINUOUS
 62
     7
 10
0.4390992554
 20
-2.3459708602
 30
0.0
 11
0.3921544823
 21
-2.1625751923
 31
0.0
  0
LINE
  5
E8
  8
0
  6
CONTINUOUS
 62
     7
 10
0.3921544823
 20
-2.1625751923
 30
0.0
 11
0.3634296032
 21
-1.9769545972
 31
0.0
  0
LINE
  5
E9
  8
0
  6
CONTINUOUS
 62
     7
 10
0.3634296032
 20
-1.9769545972
 30
0.0
 11
0.3696197289
 21
-1.7880679082
 31
0.0
  0
LINE
  5
EA
  8
0
  6
CONTINUOUS
 62
     7
 10
0.3696197289
 20
-1.7880679082
 30
0.0
 11
0.3956476423
 21
-1.6322119721
 31
0.0
  0
LINE
  5
EB
  8
0
  6
CONTINUOUS
 62
     7
 10
0.3956476423
 20
-1.6322119721
 30
0.0
 11
0.4559308325
 21
-1.4866336601
 31
0.0
  0
LINE
  5
EC
  8
0
  6
CONTINUOUS
 62
     7
 10
0.4559308325
 20
-1.4866336601
 30
0.0
 11
0.5428106203
 21
-1.3539581761
 31
0.0
  0
LINE
  5
ED
  8
0
  6
CONTINUOUS
 62
     7
 10
0.5428106203
 20
-1.3539581761
 30
0.0
 11
0.6486705621
 21
-1.2369345516
 31
0.0
  0
LINE
  5
EE
  8
0
  6
CONTINUOUS
 62
     7
 10
0.6486705621
 20
-1.2369345516
 30
0.0
 11
0.7453694535
 21
-1.1587897836
 31
0.0
  0
LINE
  5
EF
  8
0
  6
CONTINUOUS
 62
     7
 10
0.7453694535
 20
-1.1587897836
 30
0.0
 11
0.8531548377
 21
-1.0956865801
 31
0.0
  0
LINE
  5
F0
  8
0
  6
CONTINUOUS
 62
     7
 10
0.8531548377
 20
-1.0956865801
 30
0.0
 11
0.9697516453
 21
-1.0529878891
 31
0.0
  0
LINE
  5
F1
  8
0
  6
CONTINUOUS
 62
     7
 10
0.9697516453
 20
-1.0529878891
 30
0.0
 11
1.0928991062
 21
-1.0359431466
 31
0.0
  0
LINE
  5
F2
  8
0
  6
CONTINUOUS
 62
     7
 10
1.0928991062
 20
-1.0359431466
 30
0.0
 11
1.2691970418
 21
-1.0451633632
 31
0.0
  0
LINE
  5
F3
  8
0
  6
CONTINUOUS
 62
     7
 10
1.2691970418
 20
-1.0451633632
 30
0.0
 11
1.4406139132
 21
-1.0847623018
 31
0.0
  0
LINE
  5
F4
  8
0
  6
CONTINUOUS
 62
     7
 10
1.4406139132
 20
-1.0847623018
 30
0.0
 11
1.6063160607
 21
-1.1467983451
 31
0.0
  0
LINE
  5
F5
  8
0
  6
CONTINUOUS
 62
     7
 10
1.6063160607
 20
-1.1467983451
 30
0.0
 11
1.7651425104
 21
-1.2233101687
 31
0.0
  0
LINE
  5
F6
  8
0
  6
CONTINUOUS
 62
     7
 10
1.7651425104
 20
-1.2233101687
 30
0.0
 11
2.2510010793
 21
-1.4956685243
 31
0.0
  0
LINE
  5
F7
  8
0
  6
CONTINUOUS
 62
     7
 10
2.2510010793
 20
-1.4956685243
 30
0.0
 11
2.7294498818
 21
-1.7807391478
 31
0.0
  0
LINE
  5
F8
  8
0
  6
CONTINUOUS
 62
     7
 10
2.7294498818
 20
-1.7807391478
 30
0.0
 11
3.2066163654
 21
-2.0680750267
 31
0.0
  0
LINE
  5
F9
  8
0
  6
CONTINUOUS
 62
     7
 10
3.2066163654
 20
-2.0680750267
 30
0.0
 11
3.6884795204
 21
-2.3472293701
 31
0.0
  0
LINE
  5
FA
  8
0
  6
CONTINUOUS
 62
     7
 10
3.6884795204
 20
-2.3472293701
 30
0.0
 11
4.1303691929
 21
-2.622899301
 31
0.0
  0
LINE
  5
FB
  8
0
  6
CONTINUOUS
 62
     7
 10
4.1303691929
 20
-2.622899301
 30
0.0
 11
4.5783931024
 21
-2.8884800147
 31
0.0
  0
LINE
  5
FC
  8
0
  6
CONTINUOUS
 62
     7
 10
4.5783931024
 20
-2.8884800147
 30
0.0
 11
5.0272505673
 21
-3.1526027889
 31
0.0
  0
LINE
  5
FD
  8
0
  6
CONTINUOUS
 62
     7
 10
5.0272505673
 20
-3.1526027889
 30
0.0
 11
5.4716254113
 21
-3.4241204806
 31
0.0
  0
LINE
  5
FE
  8
0
  6
CONTINUOUS
 62
     7
 10
5.4716254113
 20
-3.4241204806
 30
0.0
 11
5.9939382135
 21
-3.7369474331
 31
0.0
  0
LINE
  5
FF
  8
0
  6
CONTINUOUS
 62
     7
 10
5.9939382135
 20
-3.7369474331
 30
0.0
 11
6.5068936751
 21
-4.0644095663
 31
0.0
  0
LINE
  5
100
  8
0
  6
CONTINUOUS
 62
     7
 10
6.5068936751
 20
-4.0644095663
 30
0.0
 11
7.1907435941
 21
-4.4741196194
 31
0.0
  0
LINE
  5
101
  8
0
  6
CONTINUOUS
 62
     7
 10
9.4180104946
 20
-5.7736945116
 30
0.0
 11
7.1907435941
 21
-4.4741196194
 31
0.0
  0
LINE
  5
102
  8
0
  6
CONTINUOUS
 62
     7
 10
9.4180104946
 20
-5.7736945116
 30
0.0
 11
9.965949342
 21
-6.0967003758
 31
0.0
  0
LINE
  5
103
  8
0
  6
CONTINUOUS
 62
     7
 10
9.965949342
 20
-6.0967003758
 30
0.0
 11
10.6909052655
 21
-6.5496504189
 31
0.0
  0
LINE
  5
104
  8
0
  6
CONTINUOUS
 62
     7
 10
10.6909052655
 20
-6.5496504189
 30
0.0
 11
11.4143109539
 21
-7.0050579823
 31
0.0
  0
LINE
  5
105
  8
0
  6
CONTINUOUS
 62
     7
 10
11.4143109539
 20
-7.0050579823
 30
0.0
 11
12.1321310729
 21
-7.469076902
 31
0.0
  0
LINE
  5
106
  8
0
  6
CONTINUOUS
 62
     7
 10
13.8096991057
 20
-8.5810502593
 30
0.0
 11
14.2739518752
 21
-8.916897292
 31
0.0
  0
LINE
  5
107
  8
0
  6
CONTINUOUS
 62
     7
 10
14.2739518752
 20
-8.916897292
 30
0.0
 11
14.8094230778
 21
-9.321458968
 31
0.0
  0
LINE
  5
108
  8
0
  6
CONTINUOUS
 62
     7
 10
14.8094230778
 20
-9.321458968
 30
0.0
 11
15.3242999654
 21
-9.7521483199
 31
0.0
  0
LINE
  5
109
  8
0
  6
CONTINUOUS
 62
     7
 10
15.3242999654
 20
-9.7521483199
 30
0.0
 11
15.7485572174
 21
-10.1383513761
 31
0.0
  0
LINE
  5
10A
  8
0
  6
CONTINUOUS
 62
     7
 10
15.7485572174
 20
-10.1383513761
 30
0.0
 11
16.1478048005
 21
-10.5501400908
 31
0.0
  0
LINE
  5
10B
  8
0
  6
CONTINUOUS
 62
     7
 10
16.1478048005
 20
-10.5501400908
 30
0.0
 11
16.2829317161
 21
-10.6950634723
 31
0.0
  0
LINE
  5
10C
  8
0
  6
CONTINUOUS
 62
     7
 10
16.2829317161
 20
-10.6950634723
 30
0.0
 11
16.4072239413
 21
-10.8523981304
 31
0.0
  0
LINE
  5
10D
  8
0
  6
CONTINUOUS
 62
     7
 10
16.4072239413
 20
-10.8523981304
 30
0.0
 11
16.5027478085
 21
-11.0253856881
 31
0.0
  0
LINE
  5
10E
  8
0
  6
CONTINUOUS
 62
     7
 10
16.5027478085
 20
-11.0253856881
 30
0.0
 11
16.5512346627
 21
-11.2175094187
 31
0.0
  0
LINE
  5
10F
  8
0
  6
CONTINUOUS
 62
     7
 10
4.1859400555
 20
-7.5638654722
 30
0.0
 11
4.213967469
 21
-7.6602618004
 31
0.0
  0
LINE
  5
110
  8
0
  6
CONTINUOUS
 62
     7
 10
4.213967469
 20
-7.6602618004
 30
0.0
 11
4.2173815135
 21
-7.6775010827
 31
0.0
  0
LINE
  5
111
  8
0
  6
CONTINUOUS
 62
     7
 10
4.2173815135
 20
-7.6775010827
 30
0.0
 11
4.2176738181
 21
-7.6950503412
 31
0.0
  0
LINE
  5
112
  8
0
  6
CONTINUOUS
 62
     7
 10
4.2176738181
 20
-7.6950503412
 30
0.0
 11
4.216423993
 21
-7.7126906971
 31
0.0
  0
LINE
  5
113
  8
0
  6
CONTINUOUS
 62
     7
 10
4.216423993
 20
-7.7126906971
 30
0.0
 11
4.2151751236
 21
-7.7302527566
 31
0.0
  0
LINE
  5
114
  8
0
  6
CONTINUOUS
 62
     7
 10
4.2151751236
 20
-7.7302527566
 30
0.0
 11
4.2055150371
 21
-7.8601213254
 31
0.0
  0
LINE
  5
115
  8
0
  6
CONTINUOUS
 62
     7
 10
4.2055150371
 20
-7.8601213254
 30
0.0
 11
3.9610787755
 21
-7.9545943135
 31
0.0
  0
LINE
  5
116
  8
0
  6
CONTINUOUS
 62
     7
 10
3.9610787755
 20
-7.9545943135
 30
0.0
 11
3.9341250271
 21
-7.9032601761
 31
0.0
  0
LINE
  5
117
  8
0
  6
CONTINUOUS
 62
     7
 10
3.9341250271
 20
-7.9032601761
 30
0.0
 11
3.9101364967
 21
-7.8506076413
 31
0.0
  0
LINE
  5
118
  8
0
  6
CONTINUOUS
 62
     7
 10
3.9101364967
 20
-7.8506076413
 30
0.0
 11
3.8879284151
 21
-7.7868725279
 31
0.0
  0
LINE
  5
119
  8
0
  6
CONTINUOUS
 62
     7
 10
3.8879284151
 20
-7.7868725279
 30
0.0
 11
3.8561945471
 21
-7.7269221931
 31
0.0
  0
LINE
  5
11A
  8
0
  6
CONTINUOUS
 62
     7
 10
3.8561945471
 20
-7.7269221931
 30
0.0
 11
3.8530650061
 21
-7.7455306724
 31
0.0
  0
LINE
  5
11B
  8
0
  6
CONTINUOUS
 62
     7
 10
3.8530650061
 20
-7.7455306724
 30
0.0
 11
3.8509294578
 21
-7.7645173198
 31
0.0
  0
LINE
  5
11C
  8
0
  6
CONTINUOUS
 62
     7
 10
3.8509294578
 20
-7.7645173198
 30
0.0
 11
3.846666295
 21
-7.7827096467
 31
0.0
  0
LINE
  5
11D
  8
0
  6
CONTINUOUS
 62
     7
 10
3.846666295
 20
-7.7827096467
 30
0.0
 11
3.8371808368
 21
-7.7990834881
 31
0.0
  0
LINE
  5
11E
  8
0
  6
CONTINUOUS
 62
     7
 10
3.8371808368
 20
-7.7990834881
 30
0.0
 11
3.8224723746
 21
-7.7642508317
 31
0.0
  0
LINE
  5
11F
  8
0
  6
CONTINUOUS
 62
     7
 10
3.8224723746
 20
-7.7642508317
 30
0.0
 11
3.5269532312
 21
-7.8288597884
 31
0.0
  0
LINE
  5
120
  8
0
  6
CONTINUOUS
 62
     7
 10
3.5269532312
 20
-7.8288597884
 30
0.0
 11
3.561223421
 21
-7.9480040922
 31
0.0
  0
LINE
  5
121
  8
0
  6
CONTINUOUS
 62
     7
 10
3.561223421
 20
-7.9480040922
 30
0.0
 11
3.6215542732
 21
-7.9360100258
 31
0.0
  0
LINE
  5
122
  8
0
  6
CONTINUOUS
 62
     7
 10
3.6215542732
 20
-7.9360100258
 30
0.0
 11
3.6074558066
 21
-7.8855149981
 31
0.0
  0
LINE
  5
123
  8
0
  6
CONTINUOUS
 62
     7
 10
3.6074558066
 20
-7.8855149981
 30
0.0
 11
3.6727953242
 21
-7.872240765
 31
0.0
  0
LINE
  5
124
  8
0
  6
CONTINUOUS
 62
     7
 10
3.6727953242
 20
-7.872240765
 30
0.0
 11
3.6864079129
 21
-7.913512421
 31
0.0
  0
LINE
  5
125
  8
0
  6
CONTINUOUS
 62
     7
 10
3.6864079129
 20
-7.913512421
 30
0.0
 11
3.742164871
 21
-7.9015815383
 31
0.0
  0
LINE
  5
126
  8
0
  6
CONTINUOUS
 62
     7
 10
3.742164871
 20
-7.9015815383
 30
0.0
 11
3.7303590076
 21
-7.8602599469
 31
0.0
  0
LINE
  5
127
  8
0
  6
CONTINUOUS
 62
     7
 10
3.7303590076
 20
-7.8602599469
 30
0.0
 11
3.7857876087
 21
-7.8488913539
 31
0.0
  0
LINE
  5
128
  8
0
  6
CONTINUOUS
 62
     7
 10
3.7857876087
 20
-7.8488913539
 30
0.0
 11
3.7999358047
 21
-7.8925451568
 31
0.0
  0
LINE
  5
129
  8
0
  6
CONTINUOUS
 62
     7
 10
3.7999358047
 20
-7.8925451568
 30
0.0
 11
3.8154907834
 21
-7.8892161641
 31
0.0
  0
LINE
  5
12A
  8
0
  6
CONTINUOUS
 62
     7
 10
3.8154907834
 20
-7.8892161641
 30
0.0
 11
3.8311748371
 21
-7.8862012608
 31
0.0
  0
LINE
  5
12B
  8
0
  6
CONTINUOUS
 62
     7
 10
3.8311748371
 20
-7.8862012608
 30
0.0
 11
3.846953697
 21
-7.884836655
 31
0.0
  0
LINE
  5
12C
  8
0
  6
CONTINUOUS
 62
     7
 10
3.846953697
 20
-7.884836655
 30
0.0
 11
3.8627781979
 21
-7.8865018378
 31
0.0
  0
LINE
  5
12D
  8
0
  6
CONTINUOUS
 62
     7
 10
3.8627781979
 20
-7.8865018378
 30
0.0
 11
3.8337691837
 21
-7.8973167574
 31
0.0
  0
LINE
  5
12E
  8
0
  6
CONTINUOUS
 62
     7
 10
3.8337691837
 20
-7.8973167574
 30
0.0
 11
3.8036181699
 21
-7.9048701071
 31
0.0
  0
LINE
  5
12F
  8
0
  6
CONTINUOUS
 62
     7
 10
3.8036181699
 20
-7.9048701071
 30
0.0
 11
3.8135537454
 21
-7.9446213886
 31
0.0
  0
LINE
  5
130
  8
0
  6
CONTINUOUS
 62
     7
 10
3.8135537454
 20
-7.9446213886
 30
0.0
 11
3.576057285
 21
-7.9970788999
 31
0.0
  0
LINE
  5
131
  8
0
  6
CONTINUOUS
 62
     7
 10
3.576057285
 20
-7.9970788999
 30
0.0
 11
3.5957178641
 21
-8.0643142951
 31
0.0
  0
LINE
  5
132
  8
0
  6
CONTINUOUS
 62
     7
 10
3.5957178641
 20
-8.0643142951
 30
0.0
 11
3.7150003471
 21
-8.0400194456
 31
0.0
  0
LINE
  5
133
  8
0
  6
CONTINUOUS
 62
     7
 10
3.7150003471
 20
-8.0400194456
 30
0.0
 11
3.8340733271
 21
-8.0148484007
 31
0.0
  0
LINE
  5
134
  8
0
  6
CONTINUOUS
 62
     7
 10
3.8340733271
 20
-8.0148484007
 30
0.0
 11
3.8482130601
 21
-8.0544864738
 31
0.0
  0
LINE
  5
135
  8
0
  6
CONTINUOUS
 62
     7
 10
3.8482130601
 20
-8.0544864738
 30
0.0
 11
3.9073943142
 21
-8.0437973301
 31
0.0
  0
LINE
  5
136
  8
0
  6
CONTINUOUS
 62
     7
 10
3.9073943142
 20
-8.0437973301
 30
0.0
 11
3.884695821
 21
-8.3578315353
 31
0.0
  0
LINE
  5
137
  8
0
  6
CONTINUOUS
 62
     7
 10
3.884695821
 20
-8.3578315353
 30
0.0
 11
3.8272182225
 21
-8.3688513994
 31
0.0
  0
LINE
  5
138
  8
0
  6
CONTINUOUS
 62
     7
 10
3.8272182225
 20
-8.3688513994
 30
0.0
 11
3.8132173976
 21
-8.3292515175
 31
0.0
  0
LINE
  5
139
  8
0
  6
CONTINUOUS
 62
     7
 10
3.8132173976
 20
-8.3292515175
 30
0.0
 11
3.6935947386
 21
-8.3551653488
 31
0.0
  0
LINE
  5
13A
  8
0
  6
CONTINUOUS
 62
     7
 10
3.6935947386
 20
-8.3551653488
 30
0.0
 11
3.5736645941
 21
-8.3794898673
 31
0.0
  0
LINE
  5
13B
  8
0
  6
CONTINUOUS
 62
     7
 10
3.5736645941
 20
-8.3794898673
 30
0.0
 11
3.5665208988
 21
-8.3606282703
 31
0.0
  0
LINE
  5
13C
  8
0
  6
CONTINUOUS
 62
     7
 10
3.5665208988
 20
-8.3606282703
 30
0.0
 11
3.5595896309
 21
-8.3415497158
 31
0.0
  0
LINE
  5
13D
  8
0
  6
CONTINUOUS
 62
     7
 10
3.5595896309
 20
-8.3415497158
 30
0.0
 11
3.554548458
 21
-8.3221242414
 31
0.0
  0
LINE
  5
13E
  8
0
  6
CONTINUOUS
 62
     7
 10
3.554548458
 20
-8.3221242414
 30
0.0
 11
3.5529249565
 21
-8.3020698666
 31
0.0
  0
LINE
  5
13F
  8
0
  6
CONTINUOUS
 62
     7
 10
3.5529249565
 20
-8.3020698666
 30
0.0
 11
3.5532399935
 21
-8.2720189074
 31
0.0
  0
LINE
  5
140
  8
0
  6
CONTINUOUS
 62
     7
 10
3.5532399935
 20
-8.2720189074
 30
0.0
 11
3.541155237
 21
-8.2571098668
 31
0.0
  0
LINE
  5
141
  8
0
  6
CONTINUOUS
 62
     7
 10
3.541155237
 20
-8.2571098668
 30
0.0
 11
3.5316992342
 21
-8.2406668186
 31
0.0
  0
LINE
  5
142
  8
0
  6
CONTINUOUS
 62
     7
 10
3.5316992342
 20
-8.2406668186
 30
0.0
 11
3.5156459455
 21
-8.1894059454
 31
0.0
  0
LINE
  5
143
  8
0
  6
CONTINUOUS
 62
     7
 10
3.5156459455
 20
-8.1894059454
 30
0.0
 11
3.5048873117
 21
-8.1369779554
 31
0.0
  0
LINE
  5
144
  8
0
  6
CONTINUOUS
 62
     7
 10
3.5048873117
 20
-8.1369779554
 30
0.0
 11
3.5006255669
 21
-8.1184993205
 31
0.0
  0
LINE
  5
145
  8
0
  6
CONTINUOUS
 62
     7
 10
3.5006255669
 20
-8.1184993205
 30
0.0
 11
3.4932361225
 21
-8.1009955614
 31
0.0
  0
LINE
  5
146
  8
0
  6
CONTINUOUS
 62
     7
 10
3.4932361225
 20
-8.1009955614
 30
0.0
 11
3.4856604308
 21
-8.0835061967
 31
0.0
  0
LINE
  5
147
  8
0
  6
CONTINUOUS
 62
     7
 10
3.4856604308
 20
-8.0835061967
 30
0.0
 11
3.4808602564
 21
-8.0651429428
 31
0.0
  0
LINE
  5
148
  8
0
  6
CONTINUOUS
 62
     7
 10
3.4808602564
 20
-8.0651429428
 30
0.0
 11
3.4792934228
 21
-8.0510410367
 31
0.0
  0
LINE
  5
149
  8
0
  6
CONTINUOUS
 62
     7
 10
3.4792934228
 20
-8.0510410367
 30
0.0
 11
3.4790370349
 21
-8.0366413889
 31
0.0
  0
LINE
  5
14A
  8
0
  6
CONTINUOUS
 62
     7
 10
3.4790370349
 20
-8.0366413889
 30
0.0
 11
3.4769639883
 21
-8.022840682
 31
0.0
  0
LINE
  5
14B
  8
0
  6
CONTINUOUS
 62
     7
 10
3.4769639883
 20
-8.022840682
 30
0.0
 11
3.4699051288
 21
-8.0106256788
 31
0.0
  0
LINE
  5
14C
  8
0
  6
CONTINUOUS
 62
     7
 10
3.4699051288
 20
-8.0106256788
 30
0.0
 11
3.4607163709
 21
-7.9943010555
 31
0.0
  0
LINE
  5
14D
  8
0
  6
CONTINUOUS
 62
     7
 10
3.4607163709
 20
-7.9943010555
 30
0.0
 11
3.4551682404
 21
-7.9765033756
 31
0.0
  0
LINE
  5
14E
  8
0
  6
CONTINUOUS
 62
     7
 10
3.4551682404
 20
-7.9765033756
 30
0.0
 11
3.451339315
 21
-7.9580566767
 31
0.0
  0
LINE
  5
14F
  8
0
  6
CONTINUOUS
 62
     7
 10
3.451339315
 20
-7.9580566767
 30
0.0
 11
3.4473063703
 21
-7.939785513
 31
0.0
  0
LINE
  5
150
  8
0
  6
CONTINUOUS
 62
     7
 10
3.4473063703
 20
-7.939785513
 30
0.0
 11
3.4404954938
 21
-7.922232886
 31
0.0
  0
LINE
  5
151
  8
0
  6
CONTINUOUS
 62
     7
 10
3.4404954938
 20
-7.922232886
 30
0.0
 11
3.4342011668
 21
-7.9044151071
 31
0.0
  0
LINE
  5
152
  8
0
  6
CONTINUOUS
 62
     7
 10
3.4342011668
 20
-7.9044151071
 30
0.0
 11
3.4300212664
 21
-7.8861470711
 31
0.0
  0
LINE
  5
153
  8
0
  6
CONTINUOUS
 62
     7
 10
3.4300212664
 20
-7.8861470711
 30
0.0
 11
3.4295438196
 21
-7.8672855083
 31
0.0
  0
LINE
  5
154
  8
0
  6
CONTINUOUS
 62
     7
 10
3.4295438196
 20
-7.8672855083
 30
0.0
 11
3.4369006183
 21
-7.769676492
 31
0.0
  0
LINE
  5
155
  8
0
  6
CONTINUOUS
 62
     7
 10
3.4369006183
 20
-7.769676492
 30
0.0
 11
3.4218032742
 21
-7.7590252739
 31
0.0
  0
LINE
  5
156
  8
0
  6
CONTINUOUS
 62
     7
 10
3.4218032742
 20
-7.7590252739
 30
0.0
 11
3.4066475335
 21
-7.7483908007
 31
0.0
  0
LINE
  5
157
  8
0
  6
CONTINUOUS
 62
     7
 10
3.4066475335
 20
-7.7483908007
 30
0.0
 11
3.3927878602
 21
-7.7363703942
 31
0.0
  0
LINE
  5
158
  8
0
  6
CONTINUOUS
 62
     7
 10
3.3927878602
 20
-7.7363703942
 30
0.0
 11
3.3815700756
 21
-7.7216808882
 31
0.0
  0
LINE
  5
159
  8
0
  6
CONTINUOUS
 62
     7
 10
3.3815700756
 20
-7.7216808882
 30
0.0
 11
3.3519251595
 21
-7.6777893507
 31
0.0
  0
LINE
  5
15A
  8
0
  6
CONTINUOUS
 62
     7
 10
3.3519251595
 20
-7.6777893507
 30
0.0
 11
3.3282578332
 21
-7.630311228
 31
0.0
  0
LINE
  5
15B
  8
0
  6
CONTINUOUS
 62
     7
 10
3.3282578332
 20
-7.630311228
 30
0.0
 11
3.3130315465
 21
-7.5798665189
 31
0.0
  0
LINE
  5
15C
  8
0
  6
CONTINUOUS
 62
     7
 10
3.3130315465
 20
-7.5798665189
 30
0.0
 11
3.3087086676
 21
-7.5270755326
 31
0.0
  0
LINE
  5
15D
  8
0
  6
CONTINUOUS
 62
     7
 10
3.3087086676
 20
-7.5270755326
 30
0.0
 11
3.3184861417
 21
-7.3888249004
 31
0.0
  0
LINE
  5
15E
  8
0
  6
CONTINUOUS
 62
     7
 10
3.3184861417
 20
-7.3888249004
 30
0.0
 11
3.3256009758
 21
-7.2504405098
 31
0.0
  0
LINE
  5
15F
  8
0
  6
CONTINUOUS
 62
     7
 10
3.3256009758
 20
-7.2504405098
 30
0.0
 11
3.2968913193
 21
-7.243614537
 31
0.0
  0
LINE
  5
160
  8
0
  6
CONTINUOUS
 62
     7
 10
3.2968913193
 20
-7.243614537
 30
0.0
 11
3.270003162
 21
-7.2317019439
 31
0.0
  0
LINE
  5
161
  8
0
  6
CONTINUOUS
 62
     7
 10
3.270003162
 20
-7.2317019439
 30
0.0
 11
3.2546352095
 21
-7.2192947937
 31
0.0
  0
LINE
  5
162
  8
0
  6
CONTINUOUS
 62
     7
 10
3.2546352095
 20
-7.2192947937
 30
0.0
 11
3.2420559756
 21
-7.2041374299
 31
0.0
  0
LINE
  5
163
  8
0
  6
CONTINUOUS
 62
     7
 10
3.2420559756
 20
-7.2041374299
 30
0.0
 11
3.2320116211
 21
-7.1870438531
 31
0.0
  0
LINE
  5
164
  8
0
  6
CONTINUOUS
 62
     7
 10
3.2320116211
 20
-7.1870438531
 30
0.0
 11
3.2242205585
 21
-7.1689530541
 31
0.0
  0
LINE
  5
165
  8
0
  6
CONTINUOUS
 62
     7
 10
3.2242205585
 20
-7.1689530541
 30
0.0
 11
3.1906179901
 21
-7.0648316922
 31
0.0
  0
LINE
  5
166
  8
0
  6
CONTINUOUS
 62
     7
 10
3.1906179901
 20
-7.0648316922
 30
0.0
 11
3.1471300968
 21
-6.9199615568
 31
0.0
  0
LINE
  5
167
  8
0
  6
CONTINUOUS
 62
     7
 10
3.1471300968
 20
-6.9199615568
 30
0.0
 11
3.1439571951
 21
-6.8796677118
 31
0.0
  0
LINE
  5
168
  8
0
  6
CONTINUOUS
 62
     7
 10
3.1439571951
 20
-6.8796677118
 30
0.0
 11
3.1470508733
 21
-6.8391569087
 31
0.0
  0
LINE
  5
169
  8
0
  6
CONTINUOUS
 62
     7
 10
3.1470508733
 20
-6.8391569087
 30
0.0
 11
3.1241439047
 21
-6.8337450279
 31
0.0
  0
LINE
  5
16A
  8
0
  6
CONTINUOUS
 62
     7
 10
3.1241439047
 20
-6.8337450279
 30
0.0
 11
3.1037966115
 21
-6.76950365
 31
0.0
  0
LINE
  5
16B
  8
0
  6
CONTINUOUS
 62
     7
 10
3.1037966115
 20
-6.76950365
 30
0.0
 11
3.0846850505
 21
-6.7049937562
 31
0.0
  0
LINE
  5
16C
  8
0
  6
CONTINUOUS
 62
     7
 10
3.0846850505
 20
-6.7049937562
 30
0.0
 11
3.0831231848
 21
-6.6765928103
 31
0.0
  0
LINE
  5
16D
  8
0
  6
CONTINUOUS
 62
     7
 10
3.0831231848
 20
-6.6765928103
 30
0.0
 11
3.0826428336
 21
-6.648197736
 31
0.0
  0
LINE
  5
16E
  8
0
  6
CONTINUOUS
 62
     7
 10
3.0826428336
 20
-6.648197736
 30
0.0
 11
3.0676716633
 21
-6.6320058537
 31
0.0
  0
LINE
  5
16F
  8
0
  6
CONTINUOUS
 62
     7
 10
3.0676716633
 20
-6.6320058537
 30
0.0
 11
3.0585186623
 21
-6.6123394184
 31
0.0
  0
LINE
  5
170
  8
0
  6
CONTINUOUS
 62
     7
 10
3.0585186623
 20
-6.6123394184
 30
0.0
 11
3.0523759129
 21
-6.5909905714
 31
0.0
  0
LINE
  5
171
  8
0
  6
CONTINUOUS
 62
     7
 10
3.0523759129
 20
-6.5909905714
 30
0.0
 11
3.0464175039
 21
-6.5698424388
 31
0.0
  0
LINE
  5
172
  8
0
  6
CONTINUOUS
 62
     7
 10
3.0464175039
 20
-6.5698424388
 30
0.0
 11
3.0307146456
 21
-6.5195070765
 31
0.0
  0
LINE
  5
173
  8
0
  6
CONTINUOUS
 62
     7
 10
3.0307146456
 20
-6.5195070765
 30
0.0
 11
3.0234289552
 21
-6.4677490154
 31
0.0
  0
LINE
  5
174
  8
0
  6
CONTINUOUS
 62
     7
 10
3.0234289552
 20
-6.4677490154
 30
0.0
 11
3.028771756
 21
-6.3705731622
 31
0.0
  0
LINE
  5
175
  8
0
  6
CONTINUOUS
 62
     7
 10
3.028771756
 20
-6.3705731622
 30
0.0
 11
2.9811941227
 21
-6.3285780144
 31
0.0
  0
LINE
  5
176
  8
0
  6
CONTINUOUS
 62
     7
 10
2.9811941227
 20
-6.3285780144
 30
0.0
 11
2.9480147753
 21
-6.2745739564
 31
0.0
  0
LINE
  5
177
  8
0
  6
CONTINUOUS
 62
     7
 10
2.9480147753
 20
-6.2745739564
 30
0.0
 11
2.930181338
 21
-6.2134153367
 31
0.0
  0
LINE
  5
178
  8
0
  6
CONTINUOUS
 62
     7
 10
2.930181338
 20
-6.2134153367
 30
0.0
 11
2.9285172192
 21
-6.1500389357
 31
0.0
  0
LINE
  5
179
  8
0
  6
CONTINUOUS
 62
     7
 10
2.9285172192
 20
-6.1500389357
 30
0.0
 11
2.9378195284
 21
-6.0299126326
 31
0.0
  0
LINE
  5
17A
  8
0
  6
CONTINUOUS
 62
     7
 10
2.9378195284
 20
-6.0299126326
 30
0.0
 11
2.9441345763
 21
-5.9097027422
 31
0.0
  0
LINE
  5
17B
  8
0
  6
CONTINUOUS
 62
     7
 10
2.9441345763
 20
-5.9097027422
 30
0.0
 11
2.8609205778
 21
-5.924634302
 31
0.0
  0
LINE
  5
17C
  8
0
  6
CONTINUOUS
 62
     7
 10
2.8609205778
 20
-5.924634302
 30
0.0
 11
2.8308819484
 21
-5.8299147974
 31
0.0
  0
LINE
  5
17D
  8
0
  6
CONTINUOUS
 62
     7
 10
2.8308819484
 20
-5.8299147974
 30
0.0
 11
2.8196926279
 21
-5.7948805758
 31
0.0
  0
LINE
  5
17E
  8
0
  6
CONTINUOUS
 62
     7
 10
2.8196926279
 20
-5.7948805758
 30
0.0
 11
2.8147063542
 21
-5.7587425534
 31
0.0
  0
LINE
  5
17F
  8
0
  6
CONTINUOUS
 62
     7
 10
2.8147063542
 20
-5.7587425534
 30
0.0
 11
2.819439341
 21
-5.6777439676
 31
0.0
  0
LINE
  5
180
  8
0
  6
CONTINUOUS
 62
     7
 10
2.819439341
 20
-5.6777439676
 30
0.0
 11
2.789914629
 21
-5.6826912296
 31
0.0
  0
LINE
  5
181
  8
0
  6
CONTINUOUS
 62
     7
 10
2.789914629
 20
-5.6826912296
 30
0.0
 11
2.7517073324
 21
-5.5541701492
 31
0.0
  0
LINE
  5
182
  8
0
  6
CONTINUOUS
 62
     7
 10
2.7517073324
 20
-5.5541701492
 30
0.0
 11
2.744820954
 21
-5.5000388371
 31
0.0
  0
LINE
  5
183
  8
0
  6
CONTINUOUS
 62
     7
 10
2.744820954
 20
-5.5000388371
 30
0.0
 11
2.7478506934
 21
-5.4451356202
 31
0.0
  0
LINE
  5
184
  8
0
  6
CONTINUOUS
 62
     7
 10
2.7478506934
 20
-5.4451356202
 30
0.0
 11
2.7221680409
 21
-5.444584624
 31
0.0
  0
LINE
  5
185
  8
0
  6
CONTINUOUS
 62
     7
 10
2.7221680409
 20
-5.444584624
 30
0.0
 11
2.6809878306
 21
-5.3143334694
 31
0.0
  0
LINE
  5
186
  8
0
  6
CONTINUOUS
 62
     7
 10
2.6809878306
 20
-5.3143334694
 30
0.0
 11
2.6745698533
 21
-5.2667075566
 31
0.0
  0
LINE
  5
187
  8
0
  6
CONTINUOUS
 62
     7
 10
2.6745698533
 20
-5.2667075566
 30
0.0
 11
2.6769176073
 21
-5.2183548251
 31
0.0
  0
LINE
  5
188
  8
0
  6
CONTINUOUS
 62
     7
 10
2.6769176073
 20
-5.2183548251
 30
0.0
 11
2.6699050547
 21
-5.2170028743
 31
0.0
  0
LINE
  5
189
  8
0
  6
CONTINUOUS
 62
     7
 10
2.6699050547
 20
-5.2170028743
 30
0.0
 11
2.6624052551
 21
-5.2160169044
 31
0.0
  0
LINE
  5
18A
  8
0
  6
CONTINUOUS
 62
     7
 10
2.6624052551
 20
-5.2160169044
 30
0.0
 11
2.6559895737
 21
-5.2134990172
 31
0.0
  0
LINE
  5
18B
  8
0
  6
CONTINUOUS
 62
     7
 10
2.6559895737
 20
-5.2134990172
 30
0.0
 11
2.6521353837
 21
-5.207511947
 31
0.0
  0
LINE
  5
18C
  8
0
  6
CONTINUOUS
 62
     7
 10
2.6521353837
 20
-5.207511947
 30
0.0
 11
2.6163100299
 21
-5.0889969321
 31
0.0
  0
LINE
  5
18D
  8
0
  6
CONTINUOUS
 62
     7
 10
2.6163100299
 20
-5.0889969321
 30
0.0
 11
2.6108736037
 21
-5.0557187749
 31
0.0
  0
LINE
  5
18E
  8
0
  6
CONTINUOUS
 62
     7
 10
2.6108736037
 20
-5.0557187749
 30
0.0
 11
2.6103989847
 21
-5.0218799905
 31
0.0
  0
LINE
  5
18F
  8
0
  6
CONTINUOUS
 62
     7
 10
2.6103989847
 20
-5.0218799905
 30
0.0
 11
2.6083504052
 21
-5.0120787209
 31
0.0
  0
LINE
  5
190
  8
0
  6
CONTINUOUS
 62
     7
 10
2.6083504052
 20
-5.0120787209
 30
0.0
 11
2.6021504638
 21
-5.0043338846
 31
0.0
  0
LINE
  5
191
  8
0
  6
CONTINUOUS
 62
     7
 10
2.6021504638
 20
-5.0043338846
 30
0.0
 11
2.5948822796
 21
-4.9969967911
 31
0.0
  0
LINE
  5
192
  8
0
  6
CONTINUOUS
 62
     7
 10
2.5948822796
 20
-4.9969967911
 30
0.0
 11
2.589551596
 21
-4.9885189598
 31
0.0
  0
LINE
  5
193
  8
0
  6
CONTINUOUS
 62
     7
 10
2.589551596
 20
-4.9885189598
 30
0.0
 11
2.5550889554
 21
-4.879256769
 31
0.0
  0
LINE
  5
194
  8
0
  6
CONTINUOUS
 62
     7
 10
2.5550889554
 20
-4.879256769
 30
0.0
 11
2.5473742074
 21
-4.8240092984
 31
0.0
  0
LINE
  5
195
  8
0
  6
CONTINUOUS
 62
     7
 10
2.5473742074
 20
-4.8240092984
 30
0.0
 11
2.5507389626
 21
-4.7679099006
 31
0.0
  0
LINE
  5
196
  8
0
  6
CONTINUOUS
 62
     7
 10
2.5507389626
 20
-4.7679099006
 30
0.0
 11
2.5244558224
 21
-4.7677027409
 31
0.0
  0
LINE
  5
197
  8
0
  6
CONTINUOUS
 62
     7
 10
2.5244558224
 20
-4.7677027409
 30
0.0
 11
2.4842678343
 21
-4.6339720516
 31
0.0
  0
LINE
  5
198
  8
0
  6
CONTINUOUS
 62
     7
 10
2.4842678343
 20
-4.6339720516
 30
0.0
 11
2.4805549206
 21
-4.618293093
 31
0.0
  0
LINE
  5
199
  8
0
  6
CONTINUOUS
 62
     7
 10
2.4805549206
 20
-4.618293093
 30
0.0
 11
2.4786898964
 21
-4.6021934921
 31
0.0
  0
LINE
  5
19A
  8
0
  6
CONTINUOUS
 62
     7
 10
2.4786898964
 20
-4.6021934921
 30
0.0
 11
2.4762094271
 21
-4.5863093785
 31
0.0
  0
LINE
  5
19B
  8
0
  6
CONTINUOUS
 62
     7
 10
2.4762094271
 20
-4.5863093785
 30
0.0
 11
2.4706169152
 21
-4.5712357051
 31
0.0
  0
LINE
  5
19C
  8
0
  6
CONTINUOUS
 62
     7
 10
2.4706169152
 20
-4.5712357051
 30
0.0
 11
2.4483174163
 21
-4.5108115508
 31
0.0
  0
LINE
  5
19D
  8
0
  6
CONTINUOUS
 62
     7
 10
2.4483174163
 20
-4.5108115508
 30
0.0
 11
2.4305736034
 21
-4.4487845892
 31
0.0
  0
LINE
  5
19E
  8
0
  6
CONTINUOUS
 62
     7
 10
2.4305736034
 20
-4.4487845892
 30
0.0
 11
2.4240277888
 21
-4.4010080792
 31
0.0
  0
LINE
  5
19F
  8
0
  6
CONTINUOUS
 62
     7
 10
2.4240277888
 20
-4.4010080792
 30
0.0
 11
2.4262885301
 21
-4.3524267252
 31
0.0
  0
LINE
  5
1A0
  8
0
  6
CONTINUOUS
 62
     7
 10
2.4262885301
 20
-4.3524267252
 30
0.0
 11
2.4034999612
 21
-4.3502344303
 31
0.0
  0
LINE
  5
1A1
  8
0
  6
CONTINUOUS
 62
     7
 10
2.4034999612
 20
-4.3502344303
 30
0.0
 11
2.3690101754
 21
-4.2388109989
 31
0.0
  0
LINE
  5
1A2
  8
0
  6
CONTINUOUS
 62
     7
 10
2.3690101754
 20
-4.2388109989
 30
0.0
 11
2.3642931926
 21
-4.2025060327
 31
0.0
  0
LINE
  5
1A3
  8
0
  6
CONTINUOUS
 62
     7
 10
2.3642931926
 20
-4.2025060327
 30
0.0
 11
2.3656281001
 21
-4.1658272069
 31
0.0
  0
LINE
  5
1A4
  8
0
  6
CONTINUOUS
 62
     7
 10
2.3656281001
 20
-4.1658272069
 30
0.0
 11
2.3588758574
 21
-4.1611002634
 31
0.0
  0
LINE
  5
1A5
  8
0
  6
CONTINUOUS
 62
     7
 10
2.3588758574
 20
-4.1611002634
 30
0.0
 11
2.3519008164
 21
-4.1564098985
 31
0.0
  0
LINE
  5
1A6
  8
0
  6
CONTINUOUS
 62
     7
 10
2.3519008164
 20
-4.1564098985
 30
0.0
 11
2.3459625013
 21
-4.1508331876
 31
0.0
  0
LINE
  5
1A7
  8
0
  6
CONTINUOUS
 62
     7
 10
2.3459625013
 20
-4.1508331876
 30
0.0
 11
2.3423089274
 21
-4.1434778144
 31
0.0
  0
LINE
  5
1A8
  8
0
  6
CONTINUOUS
 62
     7
 10
2.3423089274
 20
-4.1434778144
 30
0.0
 11
2.3232827999
 21
-4.0839173547
 31
0.0
  0
LINE
  5
1A9
  8
0
  6
CONTINUOUS
 62
     7
 10
2.3232827999
 20
-4.0839173547
 30
0.0
 11
2.319708045
 21
-4.0639231491
 31
0.0
  0
LINE
  5
1AA
  8
0
  6
CONTINUOUS
 62
     7
 10
2.319708045
 20
-4.0639231491
 30
0.0
 11
2.3192668603
 21
-4.043709202
 31
0.0
  0
LINE
  5
1AB
  8
0
  6
CONTINUOUS
 62
     7
 10
2.3192668603
 20
-4.043709202
 30
0.0
 11
2.3203184422
 21
-4.0233871031
 31
0.0
  0
LINE
  5
1AC
  8
0
  6
CONTINUOUS
 62
     7
 10
2.3203184422
 20
-4.0233871031
 30
0.0
 11
2.3211534275
 21
-4.0031232111
 31
0.0
  0
LINE
  5
1AD
  8
0
  6
CONTINUOUS
 62
     7
 10
2.3211534275
 20
-4.0031232111
 30
0.0
 11
2.3141237085
 21
-4.0006760661
 31
0.0
  0
LINE
  5
1AE
  8
0
  6
CONTINUOUS
 62
     7
 10
2.3141237085
 20
-4.0006760661
 30
0.0
 11
2.3068329332
 21
-3.9982803709
 31
0.0
  0
LINE
  5
1AF
  8
0
  6
CONTINUOUS
 62
     7
 10
2.3068329332
 20
-3.9982803709
 30
0.0
 11
2.3007148697
 21
-3.9945107074
 31
0.0
  0
LINE
  5
1B0
  8
0
  6
CONTINUOUS
 62
     7
 10
2.3007148697
 20
-3.9945107074
 30
0.0
 11
2.2971387658
 21
-3.9880186749
 31
0.0
  0
LINE
  5
1B1
  8
0
  6
CONTINUOUS
 62
     7
 10
2.2971387658
 20
-3.9880186749
 30
0.0
 11
2.2639838186
 21
-3.8788137534
 31
0.0
  0
LINE
  5
1B2
  8
0
  6
CONTINUOUS
 62
     7
 10
2.2639838186
 20
-3.8788137534
 30
0.0
 11
2.2598880842
 21
-3.8597331662
 31
0.0
  0
LINE
  5
1B3
  8
0
  6
CONTINUOUS
 62
     7
 10
2.2598880842
 20
-3.8597331662
 30
0.0
 11
2.2592826529
 21
-3.8403504418
 31
0.0
  0
LINE
  5
1B4
  8
0
  6
CONTINUOUS
 62
     7
 10
2.2592826529
 20
-3.8403504418
 30
0.0
 11
2.2605499224
 21
-3.820854001
 31
0.0
  0
LINE
  5
1B5
  8
0
  6
CONTINUOUS
 62
     7
 10
2.2605499224
 20
-3.820854001
 30
0.0
 11
2.2620761729
 21
-3.8014526072
 31
0.0
  0
LINE
  5
1B6
  8
0
  6
CONTINUOUS
 62
     7
 10
2.2620761729
 20
-3.8014526072
 30
0.0
 11
2.2774146265
 21
-3.6032465915
 31
0.0
  0
LINE
  5
1B7
  8
0
  6
CONTINUOUS
 62
     7
 10
2.2774146265
 20
-3.6032465915
 30
0.0
 11
2.2800217927
 21
-3.5734399244
 31
0.0
  0
LINE
  5
1B8
  8
0
  6
CONTINUOUS
 62
     7
 10
2.2800217927
 20
-3.5734399244
 30
0.0
 11
2.2846627194
 21
-3.5439383715
 31
0.0
  0
LINE
  5
1B9
  8
0
  6
CONTINUOUS
 62
     7
 10
2.2846627194
 20
-3.5439383715
 30
0.0
 11
2.3237087941
 21
-3.6783355068
 31
0.0
  0
LINE
  5
1BA
  8
0
  6
CONTINUOUS
 62
     7
 10
2.3237087941
 20
-3.6783355068
 30
0.0
 11
2.4695022308
 21
-3.6473664507
 31
0.0
  0
LINE
  5
1BB
  8
0
  6
CONTINUOUS
 62
     7
 10
2.4695022308
 20
-3.6473664507
 30
0.0
 11
2.6160440968
 21
-3.6154634189
 31
0.0
  0
LINE
  5
1BC
  8
0
  6
CONTINUOUS
 62
     7
 10
2.6160440968
 20
-3.6154634189
 30
0.0
 11
2.7637856601
 21
-3.5901794937
 31
0.0
  0
LINE
  5
1BD
  8
0
  6
CONTINUOUS
 62
     7
 10
2.7637856601
 20
-3.5901794937
 30
0.0
 11
2.7165337155
 21
-3.6074114307
 31
0.0
  0
LINE
  5
1BE
  8
0
  6
CONTINUOUS
 62
     7
 10
2.7165337155
 20
-3.6074114307
 30
0.0
 11
2.668263589
 21
-3.6219088357
 31
0.0
  0
LINE
  5
1BF
  8
0
  6
CONTINUOUS
 62
     7
 10
2.668263589
 20
-3.6219088357
 30
0.0
 11
2.4540636831
 21
-3.6964940095
 31
0.0
  0
LINE
  5
1C0
  8
0
  6
CONTINUOUS
 62
     7
 10
2.4540636831
 20
-3.6964940095
 30
0.0
 11
2.3401986825
 21
-3.7383513131
 31
0.0
  0
LINE
  5
1C1
  8
0
  6
CONTINUOUS
 62
     7
 10
2.3401986825
 20
-3.7383513131
 30
0.0
 11
2.3684229486
 21
-3.8367810262
 31
0.0
  0
LINE
  5
1C2
  8
0
  6
CONTINUOUS
 62
     7
 10
2.3684229486
 20
-3.8367810262
 30
0.0
 11
2.5793850237
 21
-3.8185147688
 31
0.0
  0
LINE
  5
1C3
  8
0
  6
CONTINUOUS
 62
     7
 10
2.5793850237
 20
-3.8185147688
 30
0.0
 11
2.7906406518
 21
-3.8053251319
 31
0.0
  0
LINE
  5
1C4
  8
0
  6
CONTINUOUS
 62
     7
 10
2.7906406518
 20
-3.8053251319
 30
0.0
 11
2.8110324845
 21
-3.806905606
 31
0.0
  0
LINE
  5
1C5
  8
0
  6
CONTINUOUS
 62
     7
 10
2.8110324845
 20
-3.806905606
 30
0.0
 11
2.7623758254
 21
-3.8176197464
 31
0.0
  0
LINE
  5
1C6
  8
0
  6
CONTINUOUS
 62
     7
 10
2.7623758254
 20
-3.8176197464
 30
0.0
 11
2.6877185679
 21
-3.8307296822
 31
0.0
  0
LINE
  5
1C7
  8
0
  6
CONTINUOUS
 62
     7
 10
2.6877185679
 20
-3.8307296822
 30
0.0
 11
2.6135340127
 21
-3.8463724408
 31
0.0
  0
LINE
  5
1C8
  8
0
  6
CONTINUOUS
 62
     7
 10
2.6135340127
 20
-3.8463724408
 30
0.0
 11
2.4990490609
 21
-3.870204483
 31
0.0
  0
LINE
  5
1C9
  8
0
  6
CONTINUOUS
 62
     7
 10
2.4990490609
 20
-3.870204483
 30
0.0
 11
2.3845831097
 21
-3.8942456388
 31
0.0
  0
LINE
  5
1CA
  8
0
  6
CONTINUOUS
 62
     7
 10
2.3845831097
 20
-3.8942456388
 30
0.0
 11
2.4268287615
 21
-4.0387697791
 31
0.0
  0
LINE
  5
1CB
  8
0
  6
CONTINUOUS
 62
     7
 10
2.4268287615
 20
-4.0387697791
 30
0.0
 11
3.1056672094
 21
-3.8920802923
 31
0.0
  0
LINE
  5
1CC
  8
0
  6
CONTINUOUS
 62
     7
 10
3.1056672094
 20
-3.8920802923
 30
0.0
 11
3.1002103048
 21
-3.9591956024
 31
0.0
  0
LINE
  5
1CD
  8
0
  6
CONTINUOUS
 62
     7
 10
3.1002103048
 20
-3.9591956024
 30
0.0
 11
2.801221693
 21
-4.0256459568
 31
0.0
  0
LINE
  5
1CE
  8
0
  6
CONTINUOUS
 62
     7
 10
2.801221693
 20
-4.0256459568
 30
0.0
 11
2.6231737365
 21
-4.064294816
 31
0.0
  0
LINE
  5
1CF
  8
0
  6
CONTINUOUS
 62
     7
 10
2.6231737365
 20
-4.064294816
 30
0.0
 11
2.4454700815
 21
-4.1045185301
 31
0.0
  0
LINE
  5
1D0
  8
0
  6
CONTINUOUS
 62
     7
 10
2.4454700815
 20
-4.1045185301
 30
0.0
 11
2.49173859
 21
-4.2607823459
 31
0.0
  0
LINE
  5
1D1
  8
0
  6
CONTINUOUS
 62
     7
 10
2.49173859
 20
-4.2607823459
 30
0.0
 11
2.839150569
 21
-4.1870748222
 31
0.0
  0
LINE
  5
1D2
  8
0
  6
CONTINUOUS
 62
     7
 10
2.839150569
 20
-4.1870748222
 30
0.0
 11
3.1699192681
 21
-4.1155688422
 31
0.0
  0
LINE
  5
1D3
  8
0
  6
CONTINUOUS
 62
     7
 10
3.1699192681
 20
-4.1155688422
 30
0.0
 11
3.1627098955
 21
-4.2269104496
 31
0.0
  0
LINE
  5
1D4
  8
0
  6
CONTINUOUS
 62
     7
 10
3.1627098955
 20
-4.2269104496
 30
0.0
 11
2.5008891167
 21
-4.2913648326
 31
0.0
  0
LINE
  5
1D5
  8
0
  6
CONTINUOUS
 62
     7
 10
2.5008891167
 20
-4.2913648326
 30
0.0
 11
2.5498031128
 21
-4.4547893466
 31
0.0
  0
LINE
  5
1D6
  8
0
  6
CONTINUOUS
 62
     7
 10
2.5498031128
 20
-4.4547893466
 30
0.0
 11
2.6726807811
 21
-4.4383074399
 31
0.0
  0
LINE
  5
1D7
  8
0
  6
CONTINUOUS
 62
     7
 10
2.6726807811
 20
-4.4383074399
 30
0.0
 11
2.6881585597
 21
-4.4953119437
 31
0.0
  0
LINE
  5
1D8
  8
0
  6
CONTINUOUS
 62
     7
 10
2.6881585597
 20
-4.4953119437
 30
0.0
 11
2.5707705937
 21
-4.5304938392
 31
0.0
  0
LINE
  5
1D9
  8
0
  6
CONTINUOUS
 62
     7
 10
2.5707705937
 20
-4.5304938392
 30
0.0
 11
2.6178597543
 21
-4.6908018687
 31
0.0
  0
LINE
  5
1DA
  8
0
  6
CONTINUOUS
 62
     7
 10
2.6178597543
 20
-4.6908018687
 30
0.0
 11
3.0530528576
 21
-4.5328410065
 31
0.0
  0
LINE
  5
1DB
  8
0
  6
CONTINUOUS
 62
     7
 10
3.0530528576
 20
-4.5328410065
 30
0.0
 11
3.2712058732
 21
-4.4538863153
 31
0.0
  0
LINE
  5
1DC
  8
0
  6
CONTINUOUS
 62
     7
 10
3.2712058732
 20
-4.4538863153
 30
0.0
 11
3.2657698971
 21
-4.5067487234
 31
0.0
  0
LINE
  5
1DD
  8
0
  6
CONTINUOUS
 62
     7
 10
3.2657698971
 20
-4.5067487234
 30
0.0
 11
3.1479497494
 21
-4.5334876792
 31
0.0
  0
LINE
  5
1DE
  8
0
  6
CONTINUOUS
 62
     7
 10
3.1479497494
 20
-4.5334876792
 30
0.0
 11
3.1735975365
 21
-4.6246327463
 31
0.0
  0
LINE
  5
1DF
  8
0
  6
CONTINUOUS
 62
     7
 10
3.1735975365
 20
-4.6246327463
 30
0.0
 11
3.0542515633
 21
-4.6512747717
 31
0.0
  0
LINE
  5
1E0
  8
0
  6
CONTINUOUS
 62
     7
 10
3.0542515633
 20
-4.6512747717
 30
0.0
 11
2.6328972789
 21
-4.7443513826
 31
0.0
  0
LINE
  5
1E1
  8
0
  6
CONTINUOUS
 62
     7
 10
2.6328972789
 20
-4.7443513826
 30
0.0
 11
2.6775058654
 21
-4.9008805128
 31
0.0
  0
LINE
  5
1E2
  8
0
  6
CONTINUOUS
 62
     7
 10
2.6775058654
 20
-4.9008805128
 30
0.0
 11
2.8358146129
 21
-4.8677201312
 31
0.0
  0
LINE
  5
1E3
  8
0
  6
CONTINUOUS
 62
     7
 10
2.8358146129
 20
-4.8677201312
 30
0.0
 11
2.9941953283
 21
-4.8351086772
 31
0.0
  0
LINE
  5
1E4
  8
0
  6
CONTINUOUS
 62
     7
 10
2.9941953283
 20
-4.8351086772
 30
0.0
 11
3.2195690506
 21
-4.7864237904
 31
0.0
  0
LINE
  5
1E5
  8
0
  6
CONTINUOUS
 62
     7
 10
3.2195690506
 20
-4.7864237904
 30
0.0
 11
3.2487344807
 21
-4.8775783827
 31
0.0
  0
LINE
  5
1E6
  8
0
  6
CONTINUOUS
 62
     7
 10
3.2487344807
 20
-4.8775783827
 30
0.0
 11
3.3850340896
 21
-4.850471546
 31
0.0
  0
LINE
  5
1E7
  8
0
  6
CONTINUOUS
 62
     7
 10
3.3850340896
 20
-4.850471546
 30
0.0
 11
3.3814606337
 21
-4.9005372337
 31
0.0
  0
LINE
  5
1E8
  8
0
  6
CONTINUOUS
 62
     7
 10
3.3814606337
 20
-4.9005372337
 30
0.0
 11
3.2088337442
 21
-4.9182430463
 31
0.0
  0
LINE
  5
1E9
  8
0
  6
CONTINUOUS
 62
     7
 10
3.2088337442
 20
-4.9182430463
 30
0.0
 11
3.0360874136
 21
-4.9349337059
 31
0.0
  0
LINE
  5
1EA
  8
0
  6
CONTINUOUS
 62
     7
 10
3.0360874136
 20
-4.9349337059
 30
0.0
 11
2.6973926645
 21
-4.9685347796
 31
0.0
  0
LINE
  5
1EB
  8
0
  6
CONTINUOUS
 62
     7
 10
2.6973926645
 20
-4.9685347796
 30
0.0
 11
2.7454224825
 21
-5.1310893042
 31
0.0
  0
LINE
  5
1EC
  8
0
  6
CONTINUOUS
 62
     7
 10
2.7454224825
 20
-5.1310893042
 30
0.0
 11
2.8697720445
 21
-5.1146495724
 31
0.0
  0
LINE
  5
1ED
  8
0
  6
CONTINUOUS
 62
     7
 10
2.8697720445
 20
-5.1146495724
 30
0.0
 11
2.8862839187
 21
-5.1726020122
 31
0.0
  0
LINE
  5
1EE
  8
0
  6
CONTINUOUS
 62
     7
 10
2.8862839187
 20
-5.1726020122
 30
0.0
 11
2.7680959223
 21
-5.2090549126
 31
0.0
  0
LINE
  5
1EF
  8
0
  6
CONTINUOUS
 62
     7
 10
2.7680959223
 20
-5.2090549126
 30
0.0
 11
2.8134930158
 21
-5.3681121348
 31
0.0
  0
LINE
  5
1F0
  8
0
  6
CONTINUOUS
 62
     7
 10
2.8134930158
 20
-5.3681121348
 30
0.0
 11
3.0568846394
 21
-5.2797357604
 31
0.0
  0
LINE
  5
1F1
  8
0
  6
CONTINUOUS
 62
     7
 10
3.0568846394
 20
-5.2797357604
 30
0.0
 11
3.2287940511
 21
-5.2193935498
 31
0.0
  0
LINE
  5
1F2
  8
0
  6
CONTINUOUS
 62
     7
 10
3.2287940511
 20
-5.2193935498
 30
0.0
 11
3.3472375811
 21
-5.1760131035
 31
0.0
  0
LINE
  5
1F3
  8
0
  6
CONTINUOUS
 62
     7
 10
3.3472375811
 20
-5.1760131035
 30
0.0
 11
3.4657783252
 21
-5.1330261027
 31
0.0
  0
LINE
  5
1F4
  8
0
  6
CONTINUOUS
 62
     7
 10
3.4657783252
 20
-5.1330261027
 30
0.0
 11
3.4594051894
 21
-5.2148773037
 31
0.0
  0
LINE
  5
1F5
  8
0
  6
CONTINUOUS
 62
     7
 10
3.4594051894
 20
-5.2148773037
 30
0.0
 11
3.3531841423
 21
-5.2411029805
 31
0.0
  0
LINE
  5
1F6
  8
0
  6
CONTINUOUS
 62
     7
 10
3.3531841423
 20
-5.2411029805
 30
0.0
 11
3.3782055766
 21
-5.3311792921
 31
0.0
  0
LINE
  5
1F7
  8
0
  6
CONTINUOUS
 62
     7
 10
3.3782055766
 20
-5.3311792921
 30
0.0
 11
3.038458116
 21
-5.4059152792
 31
0.0
  0
LINE
  5
1F8
  8
0
  6
CONTINUOUS
 62
     7
 10
3.038458116
 20
-5.4059152792
 30
0.0
 11
2.8366671262
 21
-5.4521759749
 31
0.0
  0
LINE
  5
1F9
  8
0
  6
CONTINUOUS
 62
     7
 10
2.8366671262
 20
-5.4521759749
 30
0.0
 11
2.8834023959
 21
-5.6079275403
 31
0.0
  0
LINE
  5
1FA
  8
0
  6
CONTINUOUS
 62
     7
 10
2.8834023959
 20
-5.6079275403
 30
0.0
 11
3.0480710395
 21
-5.5735559642
 31
0.0
  0
LINE
  5
1FB
  8
0
  6
CONTINUOUS
 62
     7
 10
3.0480710395
 20
-5.5735559642
 30
0.0
 11
3.212633592
 21
-5.5386647509
 31
0.0
  0
LINE
  5
1FC
  8
0
  6
CONTINUOUS
 62
     7
 10
3.212633592
 20
-5.5386647509
 30
0.0
 11
3.426175848
 21
-5.4931384151
 31
0.0
  0
LINE
  5
1FD
  8
0
  6
CONTINUOUS
 62
     7
 10
3.426175848
 20
-5.4931384151
 30
0.0
 11
3.4536346222
 21
-5.5863272277
 31
0.0
  0
LINE
  5
1FE
  8
0
  6
CONTINUOUS
 62
     7
 10
3.4536346222
 20
-5.5863272277
 30
0.0
 11
3.58915858
 21
-5.5593179695
 31
0.0
  0
LINE
  5
1FF
  8
0
  6
CONTINUOUS
 62
     7
 10
3.58915858
 20
-5.5593179695
 30
0.0
 11
3.5862861027
 21
-5.5963323561
 31
0.0
  0
LINE
  5
200
  8
0
  6
CONTINUOUS
 62
     7
 10
3.5862861027
 20
-5.5963323561
 30
0.0
 11
3.2884887554
 21
-5.6620666131
 31
0.0
  0
LINE
  5
201
  8
0
  6
CONTINUOUS
 62
     7
 10
3.2884887554
 20
-5.6620666131
 30
0.0
 11
3.0669844184
 21
-5.7115496207
 31
0.0
  0
LINE
  5
202
  8
0
  6
CONTINUOUS
 62
     7
 10
3.0669844184
 20
-5.7115496207
 30
0.0
 11
3.0361040765
 21
-5.7220272833
 31
0.0
  0
LINE
  5
203
  8
0
  6
CONTINUOUS
 62
     7
 10
3.0361040765
 20
-5.7220272833
 30
0.0
 11
3.0075872173
 21
-5.7381665529
 31
0.0
  0
LINE
  5
204
  8
0
  6
CONTINUOUS
 62
     7
 10
3.0075872173
 20
-5.7381665529
 30
0.0
 11
2.9835489964
 21
-5.7599577901
 31
0.0
  0
LINE
  5
205
  8
0
  6
CONTINUOUS
 62
     7
 10
2.9835489964
 20
-5.7599577901
 30
0.0
 11
2.9660531258
 21
-5.7875153383
 31
0.0
  0
LINE
  5
206
  8
0
  6
CONTINUOUS
 62
     7
 10
2.9660531258
 20
-5.7875153383
 30
0.0
 11
2.9546458057
 21
-5.8201422844
 31
0.0
  0
LINE
  5
207
  8
0
  6
CONTINUOUS
 62
     7
 10
2.9546458057
 20
-5.8201422844
 30
0.0
 11
2.9506629847
 21
-5.8543034441
 31
0.0
  0
LINE
  5
208
  8
0
  6
CONTINUOUS
 62
     7
 10
2.9506629847
 20
-5.8543034441
 30
0.0
 11
2.9525261358
 21
-5.8889222124
 31
0.0
  0
LINE
  5
209
  8
0
  6
CONTINUOUS
 62
     7
 10
2.9525261358
 20
-5.8889222124
 30
0.0
 11
2.958659112
 21
-5.9229330055
 31
0.0
  0
LINE
  5
20A
  8
0
  6
CONTINUOUS
 62
     7
 10
2.958659112
 20
-5.9229330055
 30
0.0
 11
2.9702697839
 21
-5.9595863074
 31
0.0
  0
LINE
  5
20B
  8
0
  6
CONTINUOUS
 62
     7
 10
2.9702697839
 20
-5.9595863074
 30
0.0
 11
2.9879746417
 21
-5.993871851
 31
0.0
  0
LINE
  5
20C
  8
0
  6
CONTINUOUS
 62
     7
 10
2.9879746417
 20
-5.993871851
 30
0.0
 11
3.0117328761
 21
-6.0241004487
 31
0.0
  0
LINE
  5
20D
  8
0
  6
CONTINUOUS
 62
     7
 10
3.0117328761
 20
-6.0241004487
 30
0.0
 11
3.0414405215
 21
-6.0485776158
 31
0.0
  0
LINE
  5
20E
  8
0
  6
CONTINUOUS
 62
     7
 10
3.0414405215
 20
-6.0485776158
 30
0.0
 11
3.0918137413
 21
-6.0692473346
 31
0.0
  0
LINE
  5
20F
  8
0
  6
CONTINUOUS
 62
     7
 10
3.0918137413
 20
-6.0692473346
 30
0.0
 11
3.1458036885
 21
-6.0737436166
 31
0.0
  0
LINE
  5
210
  8
0
  6
CONTINUOUS
 62
     7
 10
3.1458036885
 20
-6.0737436166
 30
0.0
 11
3.2583360713
 21
-6.0526990056
 31
0.0
  0
LINE
  5
211
  8
0
  6
CONTINUOUS
 62
     7
 10
3.2583360713
 20
-6.0526990056
 30
0.0
 11
3.7044754771
 21
-5.9581017835
 31
0.0
  0
LINE
  5
212
  8
0
  6
CONTINUOUS
 62
     7
 10
3.7044754771
 20
-5.9581017835
 30
0.0
 11
3.7009085232
 21
-6.0225568492
 31
0.0
  0
LINE
  5
213
  8
0
  6
CONTINUOUS
 62
     7
 10
3.7009085232
 20
-6.0225568492
 30
0.0
 11
3.351608411
 21
-6.1004533363
 31
0.0
  0
LINE
  5
214
  8
0
  6
CONTINUOUS
 62
     7
 10
3.351608411
 20
-6.1004533363
 30
0.0
 11
3.0453808704
 21
-6.1679417215
 31
0.0
  0
LINE
  5
215
  8
0
  6
CONTINUOUS
 62
     7
 10
3.0453808704
 20
-6.1679417215
 30
0.0
 11
3.0895597332
 21
-6.325038801
 31
0.0
  0
LINE
  5
216
  8
0
  6
CONTINUOUS
 62
     7
 10
3.0895597332
 20
-6.325038801
 30
0.0
 11
3.3978346547
 21
-6.261445729
 31
0.0
  0
LINE
  5
217
  8
0
  6
CONTINUOUS
 62
     7
 10
3.3978346547
 20
-6.261445729
 30
0.0
 11
3.3995642041
 21
-6.2731642044
 31
0.0
  0
LINE
  5
218
  8
0
  6
CONTINUOUS
 62
     7
 10
3.3995642041
 20
-6.2731642044
 30
0.0
 11
3.4011336244
 21
-6.285494259
 31
0.0
  0
LINE
  5
219
  8
0
  6
CONTINUOUS
 62
     7
 10
3.4011336244
 20
-6.285494259
 30
0.0
 11
3.3997497385
 21
-6.2970482933
 31
0.0
  0
LINE
  5
21A
  8
0
  6
CONTINUOUS
 62
     7
 10
3.3997497385
 20
-6.2970482933
 30
0.0
 11
3.392548838
 21
-6.3064784383
 31
0.0
  0
LINE
  5
21B
  8
0
  6
CONTINUOUS
 62
     7
 10
3.392548838
 20
-6.3064784383
 30
0.0
 11
3.3757093425
 21
-6.3153681549
 31
0.0
  0
LINE
  5
21C
  8
0
  6
CONTINUOUS
 62
     7
 10
3.3757093425
 20
-6.3153681549
 30
0.0
 11
3.3576508967
 21
-6.3213265555
 31
0.0
  0
LINE
  5
21D
  8
0
  6
CONTINUOUS
 62
     7
 10
3.3576508967
 20
-6.3213265555
 30
0.0
 11
3.3389914448
 21
-6.3257876112
 31
0.0
  0
LINE
  5
21E
  8
0
  6
CONTINUOUS
 62
     7
 10
3.3389914448
 20
-6.3257876112
 30
0.0
 11
3.3204416463
 21
-6.3301821142
 31
0.0
  0
LINE
  5
21F
  8
0
  6
CONTINUOUS
 62
     7
 10
3.3204416463
 20
-6.3301821142
 30
0.0
 11
3.1062720534
 21
-6.3763096572
 31
0.0
  0
LINE
  5
220
  8
0
  6
CONTINUOUS
 62
     7
 10
3.1062720534
 20
-6.3763096572
 30
0.0
 11
3.1484490691
 21
-6.5228079412
 31
0.0
  0
LINE
  5
221
  8
0
  6
CONTINUOUS
 62
     7
 10
3.1484490691
 20
-6.5228079412
 30
0.0
 11
3.3543813314
 21
-6.4778486711
 31
0.0
  0
LINE
  5
222
  8
0
  6
CONTINUOUS
 62
     7
 10
3.3543813314
 20
-6.4778486711
 30
0.0
 11
3.3812427274
 21
-6.4717340468
 31
0.0
  0
LINE
  5
223
  8
0
  6
CONTINUOUS
 62
     7
 10
3.3812427274
 20
-6.4717340468
 30
0.0
 11
3.408102683
 21
-6.4646484558
 31
0.0
  0
LINE
  5
224
  8
0
  6
CONTINUOUS
 62
     7
 10
3.408102683
 20
-6.4646484558
 30
0.0
 11
3.4333145527
 21
-6.4540328939
 31
0.0
  0
LINE
  5
225
  8
0
  6
CONTINUOUS
 62
     7
 10
3.4333145527
 20
-6.4540328939
 30
0.0
 11
3.4551827361
 21
-6.4373072839
 31
0.0
  0
LINE
  5
226
  8
0
  6
CONTINUOUS
 62
     7
 10
3.4551827361
 20
-6.4373072839
 30
0.0
 11
3.4664671184
 21
-6.4216698697
 31
0.0
  0
LINE
  5
227
  8
0
  6
CONTINUOUS
 62
     7
 10
3.4664671184
 20
-6.4216698697
 30
0.0
 11
3.4725492277
 21
-6.4036035547
 31
0.0
  0
LINE
  5
228
  8
0
  6
CONTINUOUS
 62
     7
 10
3.4725492277
 20
-6.4036035547
 30
0.0
 11
3.4756884808
 21
-6.3843759131
 31
0.0
  0
LINE
  5
229
  8
0
  6
CONTINUOUS
 62
     7
 10
3.4756884808
 20
-6.3843759131
 30
0.0
 11
3.4781732362
 21
-6.3653554512
 31
0.0
  0
LINE
  5
22A
  8
0
  6
CONTINUOUS
 62
     7
 10
3.4781732362
 20
-6.3653554512
 30
0.0
 11
3.4874331378
 21
-6.3814724205
 31
0.0
  0
LINE
  5
22B
  8
0
  6
CONTINUOUS
 62
     7
 10
3.4874331378
 20
-6.3814724205
 30
0.0
 11
3.4975314825
 21
-6.3974386959
 31
0.0
  0
LINE
  5
22C
  8
0
  6
CONTINUOUS
 62
     7
 10
3.4975314825
 20
-6.3974386959
 30
0.0
 11
3.5099569226
 21
-6.4110992158
 31
0.0
  0
LINE
  5
22D
  8
0
  6
CONTINUOUS
 62
     7
 10
3.5099569226
 20
-6.4110992158
 30
0.0
 11
3.5260941811
 21
-6.420426248
 31
0.0
  0
LINE
  5
22E
  8
0
  6
CONTINUOUS
 62
     7
 10
3.5260941811
 20
-6.420426248
 30
0.0
 11
3.5701170098
 21
-6.4259587309
 31
0.0
  0
LINE
  5
22F
  8
0
  6
CONTINUOUS
 62
     7
 10
3.5701170098
 20
-6.4259587309
 30
0.0
 11
3.6145891765
 21
-6.4213989003
 31
0.0
  0
LINE
  5
230
  8
0
  6
CONTINUOUS
 62
     7
 10
3.6145891765
 20
-6.4213989003
 30
0.0
 11
3.6811309136
 21
-6.4060400355
 31
0.0
  0
LINE
  5
231
  8
0
  6
CONTINUOUS
 62
     7
 10
3.6811309136
 20
-6.4060400355
 30
0.0
 11
3.7428639347
 21
-6.3774620459
 31
0.0
  0
LINE
  5
232
  8
0
  6
CONTINUOUS
 62
     7
 10
3.7428639347
 20
-6.3774620459
 30
0.0
 11
3.7568741727
 21
-6.3660793548
 31
0.0
  0
LINE
  5
233
  8
0
  6
CONTINUOUS
 62
     7
 10
3.7568741727
 20
-6.3660793548
 30
0.0
 11
3.7688349553
 21
-6.3526783855
 31
0.0
  0
LINE
  5
234
  8
0
  6
CONTINUOUS
 62
     7
 10
3.7688349553
 20
-6.3526783855
 30
0.0
 11
3.7794625196
 21
-6.3380563489
 31
0.0
  0
LINE
  5
235
  8
0
  6
CONTINUOUS
 62
     7
 10
3.7794625196
 20
-6.3380563489
 30
0.0
 11
3.7893484483
 21
-6.3230110898
 31
0.0
  0
LINE
  5
236
  8
0
  6
CONTINUOUS
 62
     7
 10
3.7893484483
 20
-6.3230110898
 30
0.0
 11
3.7791693326
 21
-6.4530831036
 31
0.0
  0
LINE
  5
237
  8
0
  6
CONTINUOUS
 62
     7
 10
3.7791693326
 20
-6.4530831036
 30
0.0
 11
3.1679099035
 21
-6.5865427882
 31
0.0
  0
LINE
  5
238
  8
0
  6
CONTINUOUS
 62
     7
 10
3.1679099035
 20
-6.5865427882
 30
0.0
 11
3.2225354592
 21
-6.779480005
 31
0.0
  0
LINE
  5
239
  8
0
  6
CONTINUOUS
 62
     7
 10
3.2225354592
 20
-6.779480005
 30
0.0
 11
3.2597389537
 21
-6.8801423195
 31
0.0
  0
LINE
  5
23A
  8
0
  6
CONTINUOUS
 62
     7
 10
3.2597389537
 20
-6.8801423195
 30
0.0
 11
3.2730840382
 21
-6.8998901637
 31
0.0
  0
LINE
  5
23B
  8
0
  6
CONTINUOUS
 62
     7
 10
3.2730840382
 20
-6.8998901637
 30
0.0
 11
3.2911686453
 21
-6.915275107
 31
0.0
  0
LINE
  5
23C
  8
0
  6
CONTINUOUS
 62
     7
 10
3.2911686453
 20
-6.915275107
 30
0.0
 11
3.3125511271
 21
-6.925778167
 31
0.0
  0
LINE
  5
23D
  8
0
  6
CONTINUOUS
 62
     7
 10
3.3125511271
 20
-6.925778167
 30
0.0
 11
3.3358326841
 21
-6.9308719757
 31
0.0
  0
LINE
  5
23E
  8
0
  6
CONTINUOUS
 62
     7
 10
3.3358326841
 20
-6.9308719757
 30
0.0
 11
3.4117737561
 21
-6.9260036903
 31
0.0
  0
LINE
  5
23F
  8
0
  6
CONTINUOUS
 62
     7
 10
3.4117737561
 20
-6.9260036903
 30
0.0
 11
3.4865877542
 21
-6.9099697813
 31
0.0
  0
LINE
  5
240
  8
0
  6
CONTINUOUS
 62
     7
 10
3.4865877542
 20
-6.9099697813
 30
0.0
 11
3.5399092858
 21
-6.8961234936
 31
0.0
  0
LINE
  5
241
  8
0
  6
CONTINUOUS
 62
     7
 10
3.5399092858
 20
-6.8961234936
 30
0.0
 11
3.5872177047
 21
-6.8689665106
 31
0.0
  0
LINE
  5
242
  8
0
  6
CONTINUOUS
 62
     7
 10
3.5872177047
 20
-6.8689665106
 30
0.0
 11
3.6002007079
 21
-6.8515117418
 31
0.0
  0
LINE
  5
243
  8
0
  6
CONTINUOUS
 62
     7
 10
3.6002007079
 20
-6.8515117418
 30
0.0
 11
3.6076586893
 21
-6.8313188033
 31
0.0
  0
LINE
  5
244
  8
0
  6
CONTINUOUS
 62
     7
 10
3.6076586893
 20
-6.8313188033
 30
0.0
 11
3.6115688629
 21
-6.8097322884
 31
0.0
  0
LINE
  5
245
  8
0
  6
CONTINUOUS
 62
     7
 10
3.6115688629
 20
-6.8097322884
 30
0.0
 11
3.613930653
 21
-6.7881606419
 31
0.0
  0
LINE
  5
246
  8
0
  6
CONTINUOUS
 62
     7
 10
3.613930653
 20
-6.7881606419
 30
0.0
 11
3.6251704037
 21
-6.8035226446
 31
0.0
  0
LINE
  5
247
  8
0
  6
CONTINUOUS
 62
     7
 10
3.6251704037
 20
-6.8035226446
 30
0.0
 11
3.6371490203
 21
-6.8185635496
 31
0.0
  0
LINE
  5
248
  8
0
  6
CONTINUOUS
 62
     7
 10
3.6371490203
 20
-6.8185635496
 30
0.0
 11
3.6508807024
 21
-6.8316232455
 31
0.0
  0
LINE
  5
249
  8
0
  6
CONTINUOUS
 62
     7
 10
3.6508807024
 20
-6.8316232455
 30
0.0
 11
3.667467223
 21
-6.8410477189
 31
0.0
  0
LINE
  5
24A
  8
0
  6
CONTINUOUS
 62
     7
 10
3.667467223
 20
-6.8410477189
 30
0.0
 11
3.7138399534
 21
-6.8465851738
 31
0.0
  0
LINE
  5
24B
  8
0
  6
CONTINUOUS
 62
     7
 10
3.7138399534
 20
-6.8465851738
 30
0.0
 11
3.7604541418
 21
-6.8390197401
 31
0.0
  0
LINE
  5
24C
  8
0
  6
CONTINUOUS
 62
     7
 10
3.7604541418
 20
-6.8390197401
 30
0.0
 11
3.816418152
 21
-6.8230152307
 31
0.0
  0
LINE
  5
24D
  8
0
  6
CONTINUOUS
 62
     7
 10
3.816418152
 20
-6.8230152307
 30
0.0
 11
3.8678133784
 21
-6.796383363
 31
0.0
  0
LINE
  5
24E
  8
0
  6
CONTINUOUS
 62
     7
 10
3.8678133784
 20
-6.796383363
 30
0.0
 11
3.8807234803
 21
-6.7840482659
 31
0.0
  0
LINE
  5
24F
  8
0
  6
CONTINUOUS
 62
     7
 10
3.8807234803
 20
-6.7840482659
 30
0.0
 11
3.8913111749
 21
-6.7697497516
 31
0.0
  0
LINE
  5
250
  8
0
  6
CONTINUOUS
 62
     7
 10
3.8913111749
 20
-6.7697497516
 30
0.0
 11
3.9006054853
 21
-6.7544099027
 31
0.0
  0
LINE
  5
251
  8
0
  6
CONTINUOUS
 62
     7
 10
3.9006054853
 20
-6.7544099027
 30
0.0
 11
3.9095999171
 21
-6.738976591
 31
0.0
  0
LINE
  5
252
  8
0
  6
CONTINUOUS
 62
     7
 10
3.9095999171
 20
-6.738976591
 30
0.0
 11
3.8906292972
 21
-6.9763419853
 31
0.0
  0
LINE
  5
253
  8
0
  6
CONTINUOUS
 62
     7
 10
3.8906292972
 20
-6.9763419853
 30
0.0
 11
3.8528206306
 21
-6.9540200004
 31
0.0
  0
LINE
  5
254
  8
0
  6
CONTINUOUS
 62
     7
 10
3.8528206306
 20
-6.9540200004
 30
0.0
 11
3.8133312344
 21
-6.9349926665
 31
0.0
  0
LINE
  5
255
  8
0
  6
CONTINUOUS
 62
     7
 10
3.8133312344
 20
-6.9349926665
 30
0.0
 11
3.7422110279
 21
-6.9165893905
 31
0.0
  0
LINE
  5
256
  8
0
  6
CONTINUOUS
 62
     7
 10
3.7422110279
 20
-6.9165893905
 30
0.0
 11
3.6689605005
 21
-6.9123884862
 31
0.0
  0
LINE
  5
257
  8
0
  6
CONTINUOUS
 62
     7
 10
3.6689605005
 20
-6.9123884862
 30
0.0
 11
3.5959972114
 21
-6.9215016737
 31
0.0
  0
LINE
  5
258
  8
0
  6
CONTINUOUS
 62
     7
 10
3.5959972114
 20
-6.9215016737
 30
0.0
 11
3.5257990962
 21
-6.9431559984
 31
0.0
  0
LINE
  5
259
  8
0
  6
CONTINUOUS
 62
     7
 10
3.5257990962
 20
-6.9431559984
 30
0.0
 11
3.4737634175
 21
-6.9701392611
 31
0.0
  0
LINE
  5
25A
  8
0
  6
CONTINUOUS
 62
     7
 10
3.4737634175
 20
-6.9701392611
 30
0.0
 11
3.4269914004
 21
-7.0056468812
 31
0.0
  0
LINE
  5
25B
  8
0
  6
CONTINUOUS
 62
     7
 10
3.4269914004
 20
-7.0056468812
 30
0.0
 11
3.387656863
 21
-7.049012614
 31
0.0
  0
LINE
  5
25C
  8
0
  6
CONTINUOUS
 62
     7
 10
3.387656863
 20
-7.049012614
 30
0.0
 11
3.3579866391
 21
-7.0995823208
 31
0.0
  0
LINE
  5
25D
  8
0
  6
CONTINUOUS
 62
     7
 10
3.3579866391
 20
-7.0995823208
 30
0.0
 11
3.3364918084
 21
-7.1644187525
 31
0.0
  0
LINE
  5
25E
  8
0
  6
CONTINUOUS
 62
     7
 10
3.3364918084
 20
-7.1644187525
 30
0.0
 11
3.3321883028
 21
-7.2325960315
 31
0.0
  0
LINE
  5
25F
  8
0
  6
CONTINUOUS
 62
     7
 10
3.3321883028
 20
-7.2325960315
 30
0.0
 11
3.343664155
 21
-7.2946882034
 31
0.0
  0
LINE
  5
260
  8
0
  6
CONTINUOUS
 62
     7
 10
3.343664155
 20
-7.2946882034
 30
0.0
 11
3.3678507592
 21
-7.3529795809
 31
0.0
  0
LINE
  5
261
  8
0
  6
CONTINUOUS
 62
     7
 10
3.3678507592
 20
-7.3529795809
 30
0.0
 11
3.4031564477
 21
-7.4054688599
 31
0.0
  0
LINE
  5
262
  8
0
  6
CONTINUOUS
 62
     7
 10
3.4031564477
 20
-7.4054688599
 30
0.0
 11
3.4479014632
 21
-7.4499849396
 31
0.0
  0
LINE
  5
263
  8
0
  6
CONTINUOUS
 62
     7
 10
3.4479014632
 20
-7.4499849396
 30
0.0
 11
3.5055841142
 21
-7.4860318421
 31
0.0
  0
LINE
  5
264
  8
0
  6
CONTINUOUS
 62
     7
 10
3.5055841142
 20
-7.4860318421
 30
0.0
 11
3.5686089507
 21
-7.5119254159
 31
0.0
  0
LINE
  5
265
  8
0
  6
CONTINUOUS
 62
     7
 10
3.5686089507
 20
-7.5119254159
 30
0.0
 11
3.6350995654
 21
-7.5262141396
 31
0.0
  0
LINE
  5
266
  8
0
  6
CONTINUOUS
 62
     7
 10
3.6350995654
 20
-7.5262141396
 30
0.0
 11
3.7031545608
 21
-7.5274926687
 31
0.0
  0
LINE
  5
267
  8
0
  6
CONTINUOUS
 62
     7
 10
3.7031545608
 20
-7.5274926687
 30
0.0
 11
3.7905147757
 21
-7.5127805058
 31
0.0
  0
LINE
  5
268
  8
0
  6
CONTINUOUS
 62
     7
 10
3.7905147757
 20
-7.5127805058
 30
0.0
 11
3.871590544
 21
-7.4773218887
 31
0.0
  0
LINE
  5
269
  8
0
  6
CONTINUOUS
 62
     7
 10
3.871590544
 20
-7.4773218887
 30
0.0
 11
3.8174119214
 21
-7.367436258
 31
0.0
  0
LINE
  5
26A
  8
0
  6
CONTINUOUS
 62
     7
 10
3.8174119214
 20
-7.367436258
 30
0.0
 11
3.7613319543
 21
-7.2585249526
 31
0.0
  0
LINE
  5
26B
  8
0
  6
CONTINUOUS
 62
     7
 10
3.7613319543
 20
-7.2585249526
 30
0.0
 11
3.7467614408
 21
-7.2733140344
 31
0.0
  0
LINE
  5
26C
  8
0
  6
CONTINUOUS
 62
     7
 10
3.7467614408
 20
-7.2733140344
 30
0.0
 11
3.7307039566
 21
-7.2866179479
 31
0.0
  0
LINE
  5
26D
  8
0
  6
CONTINUOUS
 62
     7
 10
3.7307039566
 20
-7.2866179479
 30
0.0
 11
3.7128640464
 21
-7.297038987
 31
0.0
  0
LINE
  5
26E
  8
0
  6
CONTINUOUS
 62
     7
 10
3.7128640464
 20
-7.297038987
 30
0.0
 11
3.6929102073
 21
-7.3031897818
 31
0.0
  0
LINE
  5
26F
  8
0
  6
CONTINUOUS
 62
     7
 10
3.6929102073
 20
-7.3031897818
 30
0.0
 11
3.6719082241
 21
-7.3045696673
 31
0.0
  0
LINE
  5
270
  8
0
  6
CONTINUOUS
 62
     7
 10
3.6719082241
 20
-7.3045696673
 30
0.0
 11
3.6513372524
 21
-7.3009495587
 31
0.0
  0
LINE
  5
271
  8
0
  6
CONTINUOUS
 62
     7
 10
3.6513372524
 20
-7.3009495587
 30
0.0
 11
3.6320240339
 21
-7.2928726161
 31
0.0
  0
LINE
  5
272
  8
0
  6
CONTINUOUS
 62
     7
 10
3.6320240339
 20
-7.2928726161
 30
0.0
 11
3.6147768092
 21
-7.2809263161
 31
0.0
  0
LINE
  5
273
  8
0
  6
CONTINUOUS
 62
     7
 10
3.6147768092
 20
-7.2809263161
 30
0.0
 11
3.6004028628
 21
-7.2657764319
 31
0.0
  0
LINE
  5
274
  8
0
  6
CONTINUOUS
 62
     7
 10
3.6004028628
 20
-7.2657764319
 30
0.0
 11
3.5897176447
 21
-7.2480083727
 31
0.0
  0
LINE
  5
275
  8
0
  6
CONTINUOUS
 62
     7
 10
3.5897176447
 20
-7.2480083727
 30
0.0
 11
3.583544292
 21
-7.2281663323
 31
0.0
  0
LINE
  5
276
  8
0
  6
CONTINUOUS
 62
     7
 10
3.583544292
 20
-7.2281663323
 30
0.0
 11
3.5826792751
 21
-7.2069191848
 31
0.0
  0
LINE
  5
277
  8
0
  6
CONTINUOUS
 62
     7
 10
3.5826792751
 20
-7.2069191848
 30
0.0
 11
3.5898940224
 21
-7.1849936738
 31
0.0
  0
LINE
  5
278
  8
0
  6
CONTINUOUS
 62
     7
 10
3.5898940224
 20
-7.1849936738
 30
0.0
 11
3.6028098839
 21
-7.166270787
 31
0.0
  0
LINE
  5
279
  8
0
  6
CONTINUOUS
 62
     7
 10
3.6028098839
 20
-7.166270787
 30
0.0
 11
3.6202002956
 21
-7.1511802585
 31
0.0
  0
LINE
  5
27A
  8
0
  6
CONTINUOUS
 62
     7
 10
3.6202002956
 20
-7.1511802585
 30
0.0
 11
3.6407512239
 21
-7.1402549261
 31
0.0
  0
LINE
  5
27B
  8
0
  6
CONTINUOUS
 62
     7
 10
3.6407512239
 20
-7.1402549261
 30
0.0
 11
3.6631964527
 21
-7.1339358939
 31
0.0
  0
LINE
  5
27C
  8
0
  6
CONTINUOUS
 62
     7
 10
3.6631964527
 20
-7.1339358939
 30
0.0
 11
3.6862616006
 21
-7.13274463
 31
0.0
  0
LINE
  5
27D
  8
0
  6
CONTINUOUS
 62
     7
 10
3.6862616006
 20
-7.13274463
 30
0.0
 11
3.7087088113
 21
-7.1371531176
 31
0.0
  0
LINE
  5
27E
  8
0
  6
CONTINUOUS
 62
     7
 10
3.7087088113
 20
-7.1371531176
 30
0.0
 11
3.7292065056
 21
-7.1476602144
 31
0.0
  0
LINE
  5
27F
  8
0
  6
CONTINUOUS
 62
     7
 10
3.7292065056
 20
-7.1476602144
 30
0.0
 11
3.7541885092
 21
-7.1704183527
 31
0.0
  0
LINE
  5
280
  8
0
  6
CONTINUOUS
 62
     7
 10
3.7541885092
 20
-7.1704183527
 30
0.0
 11
3.7730770785
 21
-7.1982787208
 31
0.0
  0
LINE
  5
281
  8
0
  6
CONTINUOUS
 62
     7
 10
3.7730770785
 20
-7.1982787208
 30
0.0
 11
3.788630661
 21
-7.2286168189
 31
0.0
  0
LINE
  5
282
  8
0
  6
CONTINUOUS
 62
     7
 10
3.788630661
 20
-7.2286168189
 30
0.0
 11
3.8035918519
 21
-7.2589297264
 31
0.0
  0
LINE
  5
283
  8
0
  6
CONTINUOUS
 62
     7
 10
3.8035918519
 20
-7.2589297264
 30
0.0
 11
3.8461585473
 21
-7.3439789165
 31
0.0
  0
LINE
  5
284
  8
0
  6
CONTINUOUS
 62
     7
 10
3.8461585473
 20
-7.3439789165
 30
0.0
 11
3.8882799496
 21
-7.4293118371
 31
0.0
  0
LINE
  5
285
  8
0
  6
CONTINUOUS
 62
     7
 10
3.8882799496
 20
-7.4293118371
 30
0.0
 11
3.9238252578
 21
-7.5019012116
 31
0.0
  0
LINE
  5
286
  8
0
  6
CONTINUOUS
 62
     7
 10
3.9238252578
 20
-7.5019012116
 30
0.0
 11
3.9318712778
 21
-7.5295936875
 31
0.0
  0
LINE
  5
287
  8
0
  6
CONTINUOUS
 62
     7
 10
3.9318712778
 20
-7.5295936875
 30
0.0
 11
3.9400826377
 21
-7.5572777642
 31
0.0
  0
LINE
  5
288
  8
0
  6
CONTINUOUS
 62
     7
 10
3.9400826377
 20
-7.5572777642
 30
0.0
 11
3.9828175871
 21
-7.6394308884
 31
0.0
  0
LINE
  5
289
  8
0
  6
CONTINUOUS
 62
     7
 10
3.9828175871
 20
-7.6394308884
 30
0.0
 11
4.1859400555
 21
-7.5638654722
 31
0.0
  0
LINE
  5
28A
  8
0
  6
CONTINUOUS
 62
     7
 10
3.6482626784
 20
-5.7579149836
 30
0.0
 11
3.6460887458
 21
-5.7831076207
 31
0.0
  0
LINE
  5
28B
  8
0
  6
CONTINUOUS
 62
     7
 10
3.6460887458
 20
-5.7831076207
 30
0.0
 11
3.639672508
 21
-5.8073008814
 31
0.0
  0
LINE
  5
28C
  8
0
  6
CONTINUOUS
 62
     7
 10
3.639672508
 20
-5.8073008814
 30
0.0
 11
3.5455190633
 21
-5.8273549485
 31
0.0
  0
LINE
  5
28D
  8
0
  6
CONTINUOUS
 62
     7
 10
3.5455190633
 20
-5.8273549485
 30
0.0
 11
3.1715937374
 21
-5.906090311
 31
0.0
  0
LINE
  5
28E
  8
0
  6
CONTINUOUS
 62
     7
 10
3.1715937374
 20
-5.906090311
 30
0.0
 11
3.1347196036
 21
-5.9131527881
 31
0.0
  0
LINE
  5
28F
  8
0
  6
CONTINUOUS
 62
     7
 10
3.1347196036
 20
-5.9131527881
 30
0.0
 11
3.0974306219
 21
-5.9171509047
 31
0.0
  0
LINE
  5
290
  8
0
  6
CONTINUOUS
 62
     7
 10
3.0974306219
 20
-5.9171509047
 30
0.0
 11
3.0859138053
 21
-5.914336338
 31
0.0
  0
LINE
  5
291
  8
0
  6
CONTINUOUS
 62
     7
 10
3.0859138053
 20
-5.914336338
 30
0.0
 11
3.0777047531
 21
-5.9061533129
 31
0.0
  0
LINE
  5
292
  8
0
  6
CONTINUOUS
 62
     7
 10
3.0777047531
 20
-5.9061533129
 30
0.0
 11
3.0742935355
 21
-5.8950691919
 31
0.0
  0
LINE
  5
293
  8
0
  6
CONTINUOUS
 62
     7
 10
3.0742935355
 20
-5.8950691919
 30
0.0
 11
3.0771852408
 21
-5.8835275253
 31
0.0
  0
LINE
  5
294
  8
0
  6
CONTINUOUS
 62
     7
 10
3.0771852408
 20
-5.8835275253
 30
0.0
 11
3.1035986143
 21
-5.8702384673
 31
0.0
  0
LINE
  5
295
  8
0
  6
CONTINUOUS
 62
     7
 10
3.1035986143
 20
-5.8702384673
 30
0.0
 11
3.1326513833
 21
-5.8632848162
 31
0.0
  0
LINE
  5
296
  8
0
  6
CONTINUOUS
 62
     7
 10
3.1326513833
 20
-5.8632848162
 30
0.0
 11
3.2871283066
 21
-5.8306341231
 31
0.0
  0
LINE
  5
297
  8
0
  6
CONTINUOUS
 62
     7
 10
3.2871283066
 20
-5.8306341231
 30
0.0
 11
3.4419156081
 21
-5.7993651537
 31
0.0
  0
LINE
  5
298
  8
0
  6
CONTINUOUS
 62
     7
 10
3.4419156081
 20
-5.7993651537
 30
0.0
 11
3.545011703
 21
-5.7781863373
 31
0.0
  0
LINE
  5
299
  8
0
  6
CONTINUOUS
 62
     7
 10
3.545011703
 20
-5.7781863373
 30
0.0
 11
3.6482626784
 21
-5.7579149836
 31
0.0
  0
LINE
  5
29A
  8
0
  6
CONTINUOUS
 62
     7
 10
3.0129687892
 20
-3.6063926344
 30
0.0
 11
3.0189678858
 21
-3.6439118657
 31
0.0
  0
LINE
  5
29B
  8
0
  6
CONTINUOUS
 62
     7
 10
3.0189678858
 20
-3.6439118657
 30
0.0
 11
3.0157913771
 21
-3.6819883225
 31
0.0
  0
LINE
  5
29C
  8
0
  6
CONTINUOUS
 62
     7
 10
3.0157913771
 20
-3.6819883225
 30
0.0
 11
2.8279268562
 21
-3.7012320205
 31
0.0
  0
LINE
  5
29D
  8
0
  6
CONTINUOUS
 62
     7
 10
2.8279268562
 20
-3.7012320205
 30
0.0
 11
2.718928065
 21
-3.7111313941
 31
0.0
  0
LINE
  5
29E
  8
0
  6
CONTINUOUS
 62
     7
 10
2.718928065
 20
-3.7111313941
 30
0.0
 11
2.7770205973
 21
-3.6884417123
 31
0.0
  0
LINE
  5
29F
  8
0
  6
CONTINUOUS
 62
     7
 10
2.7770205973
 20
-3.6884417123
 30
0.0
 11
2.8360050917
 21
-3.6681416159
 31
0.0
  0
LINE
  5
2A0
  8
0
  6
CONTINUOUS
 62
     7
 10
2.8360050917
 20
-3.6681416159
 30
0.0
 11
3.0129687892
 21
-3.6063926344
 31
0.0
  0
LINE
  5
2A1
  8
0
  6
CONTINUOUS
 62
     7
 10
3.6530064228
 20
-6.2050785382
 30
0.0
 11
3.6555841508
 21
-6.2176734246
 31
0.0
  0
LINE
  5
2A2
  8
0
  6
CONTINUOUS
 62
     7
 10
3.6555841508
 20
-6.2176734246
 30
0.0
 11
3.6568339563
 21
-6.2308207361
 31
0.0
  0
LINE
  5
2A3
  8
0
  6
CONTINUOUS
 62
     7
 10
3.6568339563
 20
-6.2308207361
 30
0.0
 11
3.6544952589
 21
-6.2431127918
 31
0.0
  0
LINE
  5
2A4
  8
0
  6
CONTINUOUS
 62
     7
 10
3.6544952589
 20
-6.2431127918
 30
0.0
 11
3.6462704231
 21
-6.2531759432
 31
0.0
  0
LINE
  5
2A5
  8
0
  6
CONTINUOUS
 62
     7
 10
3.6462704231
 20
-6.2531759432
 30
0.0
 11
3.6134163054
 21
-6.2662949744
 31
0.0
  0
LINE
  5
2A6
  8
0
  6
CONTINUOUS
 62
     7
 10
3.6134163054
 20
-6.2662949744
 30
0.0
 11
3.578701425
 21
-6.2743260526
 31
0.0
  0
LINE
  5
2A7
  8
0
  6
CONTINUOUS
 62
     7
 10
3.578701425
 20
-6.2743260526
 30
0.0
 11
3.5542216896
 21
-6.2786381244
 31
0.0
  0
LINE
  5
2A8
  8
0
  6
CONTINUOUS
 62
     7
 10
3.5542216896
 20
-6.2786381244
 30
0.0
 11
3.5296212858
 21
-6.2779445467
 31
0.0
  0
LINE
  5
2A9
  8
0
  6
CONTINUOUS
 62
     7
 10
3.5296212858
 20
-6.2779445467
 30
0.0
 11
3.5190777306
 21
-6.2709965924
 31
0.0
  0
LINE
  5
2AA
  8
0
  6
CONTINUOUS
 62
     7
 10
3.5190777306
 20
-6.2709965924
 30
0.0
 11
3.5117690126
 21
-6.2607998953
 31
0.0
  0
LINE
  5
2AB
  8
0
  6
CONTINUOUS
 62
     7
 10
3.5117690126
 20
-6.2607998953
 30
0.0
 11
3.5062411289
 21
-6.2491133704
 31
0.0
  0
LINE
  5
2AC
  8
0
  6
CONTINUOUS
 62
     7
 10
3.5062411289
 20
-6.2491133704
 30
0.0
 11
3.5009530072
 21
-6.237677987
 31
0.0
  0
LINE
  5
2AD
  8
0
  6
CONTINUOUS
 62
     7
 10
3.5009530072
 20
-6.237677987
 30
0.0
 11
3.6530064228
 21
-6.2050785382
 31
0.0
  0
LINE
  5
2AE
  8
0
  6
CONTINUOUS
 62
     7
 10
3.775173364
 20
-6.6230032085
 30
0.0
 11
3.7773864582
 21
-6.6356597396
 31
0.0
  0
LINE
  5
2AF
  8
0
  6
CONTINUOUS
 62
     7
 10
3.7773864582
 20
-6.6356597396
 30
0.0
 11
3.779386942
 21
-6.6489897121
 31
0.0
  0
LINE
  5
2B0
  8
0
  6
CONTINUOUS
 62
     7
 10
3.779386942
 20
-6.6489897121
 30
0.0
 11
3.7780555186
 21
-6.661542995
 31
0.0
  0
LINE
  5
2B1
  8
0
  6
CONTINUOUS
 62
     7
 10
3.7780555186
 20
-6.661542995
 30
0.0
 11
3.7702578648
 21
-6.6717762382
 31
0.0
  0
LINE
  5
2B2
  8
0
  6
CONTINUOUS
 62
     7
 10
3.7702578648
 20
-6.6717762382
 30
0.0
 11
3.7315808877
 21
-6.6879888572
 31
0.0
  0
LINE
  5
2B3
  8
0
  6
CONTINUOUS
 62
     7
 10
3.7315808877
 20
-6.6879888572
 30
0.0
 11
3.6902458023
 21
-6.6969858803
 31
0.0
  0
LINE
  5
2B4
  8
0
  6
CONTINUOUS
 62
     7
 10
3.6902458023
 20
-6.6969858803
 30
0.0
 11
3.6783040156
 21
-6.6989706182
 31
0.0
  0
LINE
  5
2B5
  8
0
  6
CONTINUOUS
 62
     7
 10
3.6783040156
 20
-6.6989706182
 30
0.0
 11
3.6660552024
 21
-6.7003880058
 31
0.0
  0
LINE
  5
2B6
  8
0
  6
CONTINUOUS
 62
     7
 10
3.6660552024
 20
-6.7003880058
 30
0.0
 11
3.6540206956
 21
-6.6996685448
 31
0.0
  0
LINE
  5
2B7
  8
0
  6
CONTINUOUS
 62
     7
 10
3.6540206956
 20
-6.6996685448
 30
0.0
 11
3.6427419975
 21
-6.6953266788
 31
0.0
  0
LINE
  5
2B8
  8
0
  6
CONTINUOUS
 62
     7
 10
3.6427419975
 20
-6.6953266788
 30
0.0
 11
3.6304181665
 21
-6.676401716
 31
0.0
  0
LINE
  5
2B9
  8
0
  6
CONTINUOUS
 62
     7
 10
3.6304181665
 20
-6.676401716
 30
0.0
 11
3.6221587718
 21
-6.6550668367
 31
0.0
  0
LINE
  5
2BA
  8
0
  6
CONTINUOUS
 62
     7
 10
3.6221587718
 20
-6.6550668367
 30
0.0
 11
3.775173364
 21
-6.6230032085
 31
0.0
  0
LINE
  5
2BB
  8
0
  6
CONTINUOUS
 62
     7
 10
2.972407125
 20
-4.3893176309
 30
0.0
 11
3.0274766105
 21
-4.3821794006
 31
0.0
  0
LINE
  5
2BC
  8
0
  6
CONTINUOUS
 62
     7
 10
3.0274766105
 20
-4.3821794006
 30
0.0
 11
3.0827394009
 21
-4.3778920775
 31
0.0
  0
LINE
  5
2BD
  8
0
  6
CONTINUOUS
 62
     7
 10
3.0827394009
 20
-4.3778920775
 30
0.0
 11
2.9457748204
 21
-4.4217810673
 31
0.0
  0
LINE
  5
2BE
  8
0
  6
CONTINUOUS
 62
     7
 10
2.9457748204
 20
-4.4217810673
 30
0.0
 11
2.8081814036
 21
-4.4641572858
 31
0.0
  0
LINE
  5
2BF
  8
0
  6
CONTINUOUS
 62
     7
 10
2.8081814036
 20
-4.4641572858
 30
0.0
 11
2.7910895734
 21
-4.4109588661
 31
0.0
  0
LINE
  5
2C0
  8
0
  6
CONTINUOUS
 62
     7
 10
2.7910895734
 20
-4.4109588661
 30
0.0
 11
2.972407125
 21
-4.3893176309
 31
0.0
  0
LINE
  5
2C1
  8
0
  6
CONTINUOUS
 62
     7
 10
2.9888253759
 20
-5.0869679373
 30
0.0
 11
3.1337073887
 21
-5.0698876303
 31
0.0
  0
LINE
  5
2C2
  8
0
  6
CONTINUOUS
 62
     7
 10
3.1337073887
 20
-5.0698876303
 30
0.0
 11
3.2791608743
 21
-5.060609549
 31
0.0
  0
LINE
  5
2C3
  8
0
  6
CONTINUOUS
 62
     7
 10
3.2791608743
 20
-5.060609549
 30
0.0
 11
3.2152470926
 21
-5.0796504364
 31
0.0
  0
LINE
  5
2C4
  8
0
  6
CONTINUOUS
 62
     7
 10
3.2152470926
 20
-5.0796504364
 30
0.0
 11
3.1508131204
 21
-5.0971356954
 31
0.0
  0
LINE
  5
2C5
  8
0
  6
CONTINUOUS
 62
     7
 10
3.1508131204
 20
-5.0971356954
 30
0.0
 11
3.0034871394
 21
-5.1409021786
 31
0.0
  0
LINE
  5
2C6
  8
0
  6
CONTINUOUS
 62
     7
 10
3.0034871394
 20
-5.1409021786
 30
0.0
 11
2.9888253759
 21
-5.0869679373
 31
0.0
  0
LINE
  5
2C7
  8
0
  6
CONTINUOUS
 62
     7
 10
3.5189466088
 20
-6.6793101076
 30
0.0
 11
3.5213369593
 21
-6.6925711999
 31
0.0
  0
LINE
  5
2C8
  8
0
  6
CONTINUOUS
 62
     7
 10
3.5213369593
 20
-6.6925711999
 30
0.0
 11
3.5231768882
 21
-6.7066065005
 31
0.0
  0
LINE
  5
2C9
  8
0
  6
CONTINUOUS
 62
     7
 10
3.5231768882
 20
-6.7066065005
 30
0.0
 11
3.5213339312
 21
-6.7196614655
 31
0.0
  0
LINE
  5
2CA
  8
0
  6
CONTINUOUS
 62
     7
 10
3.5213339312
 20
-6.7196614655
 30
0.0
 11
3.5125839944
 21
-6.7300429355
 31
0.0
  0
LINE
  5
2CB
  8
0
  6
CONTINUOUS
 62
     7
 10
3.5125839944
 20
-6.7300429355
 30
0.0
 11
3.4651311499
 21
-6.7467239045
 31
0.0
  0
LINE
  5
2CC
  8
0
  6
CONTINUOUS
 62
     7
 10
3.4651311499
 20
-6.7467239045
 30
0.0
 11
3.4155722838
 21
-6.7571622949
 31
0.0
  0
LINE
  5
2CD
  8
0
  6
CONTINUOUS
 62
     7
 10
3.4155722838
 20
-6.7571622949
 30
0.0
 11
3.3995459628
 21
-6.7604664968
 31
0.0
  0
LINE
  5
2CE
  8
0
  6
CONTINUOUS
 62
     7
 10
3.3995459628
 20
-6.7604664968
 30
0.0
 11
3.3831065145
 21
-6.7632142668
 31
0.0
  0
LINE
  5
2CF
  8
0
  6
CONTINUOUS
 62
     7
 10
3.3831065145
 20
-6.7632142668
 30
0.0
 11
3.3668028861
 21
-6.7631923051
 31
0.0
  0
LINE
  5
2D0
  8
0
  6
CONTINUOUS
 62
     7
 10
3.3668028861
 20
-6.7631923051
 30
0.0
 11
3.351177419
 21
-6.7582282172
 31
0.0
  0
LINE
  5
2D1
  8
0
  6
CONTINUOUS
 62
     7
 10
3.351177419
 20
-6.7582282172
 30
0.0
 11
3.3380488198
 21
-6.7401972088
 31
0.0
  0
LINE
  5
2D2
  8
0
  6
CONTINUOUS
 62
     7
 10
3.3380488198
 20
-6.7401972088
 30
0.0
 11
3.3284944486
 21
-6.7197173973
 31
0.0
  0
LINE
  5
2D3
  8
0
  6
CONTINUOUS
 62
     7
 10
3.3284944486
 20
-6.7197173973
 30
0.0
 11
3.5189466088
 21
-6.6793101076
 31
0.0
  0
LINE
  5
2D4
  8
0
  6
CONTINUOUS
 62
     7
 10
3.7731164676
 20
-7.5812016485
 30
0.0
 11
3.7887357675
 21
-7.6361759991
 31
0.0
  0
LINE
  5
2D5
  8
0
  6
CONTINUOUS
 62
     7
 10
3.7887357675
 20
-7.6361759991
 30
0.0
 11
3.7290366616
 21
-7.6672214509
 31
0.0
  0
LINE
  5
2D6
  8
0
  6
CONTINUOUS
 62
     7
 10
3.7290366616
 20
-7.6672214509
 30
0.0
 11
3.6717489837
 21
-7.7022957956
 31
0.0
  0
LINE
  5
2D7
  8
0
  6
CONTINUOUS
 62
     7
 10
3.6717489837
 20
-7.7022957956
 30
0.0
 11
3.8006518589
 21
-7.6764126799
 31
0.0
  0
LINE
  5
2D8
  8
0
  6
CONTINUOUS
 62
     7
 10
3.8006518589
 20
-7.6764126799
 30
0.0
 11
3.8157489931
 21
-7.7320829163
 31
0.0
  0
LINE
  5
2D9
  8
0
  6
CONTINUOUS
 62
     7
 10
3.8157489931
 20
-7.7320829163
 30
0.0
 11
3.5186592512
 21
-7.7969081675
 31
0.0
  0
LINE
  5
2DA
  8
0
  6
CONTINUOUS
 62
     7
 10
3.5186592512
 20
-7.7969081675
 30
0.0
 11
3.5009985286
 21
-7.738344984
 31
0.0
  0
LINE
  5
2DB
  8
0
  6
CONTINUOUS
 62
     7
 10
3.5009985286
 20
-7.738344984
 30
0.0
 11
3.5608942826
 21
-7.7049024705
 31
0.0
  0
LINE
  5
2DC
  8
0
  6
CONTINUOUS
 62
     7
 10
3.5608942826
 20
-7.7049024705
 30
0.0
 11
3.6210027582
 21
-7.6719841284
 31
0.0
  0
LINE
  5
2DD
  8
0
  6
CONTINUOUS
 62
     7
 10
3.6210027582
 20
-7.6719841284
 30
0.0
 11
3.4894740727
 21
-7.7002196435
 31
0.0
  0
LINE
  5
2DE
  8
0
  6
CONTINUOUS
 62
     7
 10
3.4894740727
 20
-7.7002196435
 30
0.0
 11
3.4737986838
 21
-7.6472509488
 31
0.0
  0
LINE
  5
2DF
  8
0
  6
CONTINUOUS
 62
     7
 10
3.4737986838
 20
-7.6472509488
 30
0.0
 11
3.7731164676
 21
-7.5812016485
 31
0.0
  0
LINE
  5
2E0
  8
0
  6
CONTINUOUS
 62
     7
 10
3.5149542267
 20
-7.565580676
 30
0.0
 11
3.526799268
 21
-7.6102850102
 31
0.0
  0
LINE
  5
2E1
  8
0
  6
CONTINUOUS
 62
     7
 10
3.526799268
 20
-7.6102850102
 30
0.0
 11
3.4667646159
 21
-7.6223501875
 31
0.0
  0
LINE
  5
2E2
  8
0
  6
CONTINUOUS
 62
     7
 10
3.4667646159
 20
-7.6223501875
 30
0.0
 11
3.4528190514
 21
-7.5743080345
 31
0.0
  0
LINE
  5
2E3
  8
0
  6
CONTINUOUS
 62
     7
 10
3.4528190514
 20
-7.5743080345
 30
0.0
 11
3.5149542267
 21
-7.565580676
 31
0.0
  0
ENDSEC
  0
EOF
